20151227

BURNS ERNST SPANISH HARLEM TAB

Burns Ernst plays Spanish Harlem with a nice Fender Stratocaster.
Nice instrumental guitar cover.
See the TAB under the video.



BURNS ERNST SPANISH HARLEM TAB

PDF >>

Part 1

e-----------------------------------------------------------------------
B-----------------------------------------------------------------------
G-----------------------4---6---4h6p4-----------------------------------
D---4---4---5-5/7---7-----------------7~--------------------------------
A-----------------------------------------------------------------------
E-----------------------------------------------------------------------


e-----------------------------------------------------------------------
B-----------------------------------------------------------------------
G-----------------------4---6---4h6p4-----------------------------------
D---4---4---5-5/7---7-----------------7~--------------------------------
A-----------------------------------------------------------------------
E-----------------------------------------------------------------------


e-----------------------------------------------------------------------
B-----5-----------5---------5-----5-------------------------------------
G---------7---4-----7---4-----7-4---7---4-------------------------------
D-----------------------------------------------------------------------
A-----------------------------------------------------------------------
E-----------------------------------------------------------------------



e-----------------------------------------------------------------------
B---5-----5-----5-----5-----5-------------------------------------------
G-----7-4---7-4---7-4---7-4---7-4-7-\----------2~-----------------------
D-------------------------------------0---/4----------------------------
A-----------------------------------------------------------------------
E-----------------------------------------------------------------------


e-----------------------------------------------------------------------
B-----------------------------------------------------------------------
G-----------------------------------------------------------------------
D---2---2---4---5-4---7---5---4-5-4---7-5~------------------------------
A-----------------------------------------------------------------------
E-----------------------------------------------------------------------


e-----------------------------------------------------------------------
B-----------------------------------------------------------------------
G-----------------------------------------------------------------------
D---7-\---------0~------------------------------------------------------
A-------0-0h2-----------------------------------------------------------
E-----------------------------------------------------------------------


Part 2

e---2---2---3---5---5---7----9---7h9p7-5~-------------------------------
B---3---3---5---7---7---8---10---8-----7~-------------------------------
G-----------------------------------------------------------------------
D-----------------------------------------------------------------------
A-----------------------------------------------------------------------
E-----------------------------------------------------------------------


e---2---2---3---5---5---7----9---7h9p7-5~-------------------------------
B---3---3---5---7---7---8---10---8-----7~-------------------------------
G-----------------------------------------------------------------------
D-----------------------------------------------------------------------
A-----------------------------------------------------------------------
E-----------------------------------------------------------------------

       x    x   x    x  x   x    x  x x  x  x   x
e-----12---10---7---12-10---7---12-10-7-12-10---7-----------------------
B-----------------------------------------------------------------------
G-----------------------------------------------------------------------
D-----------------------------------------------------------------------
A-----------------------------------------------------------------------
E-----------------------------------------------------------------------

     x  x x  x  x x  x  x x  x  x x  x  x x  x
e---12-10-7-12-10-7-12-10-7-12-10-7-12-10-7-12-\------------------------
B----------------------------------------------------------10~----------
G------------------------------------------------7--/-11---11~----------
D-----------------------------------------------------------------------
A-----------------------------------------------------------------------
E-----------------------------------------------------------------------


e---0---0---2---3-2---5---3---2-3-2---5-3~------------------------------
B---2---2---3---5-3---7---5---3-5-3---7-5~------------------------------
G-----------------------------------------------------------------------
D-----------------------------------------------------------------------
A-----------------------------------------------------------------------
E-----------------------------------------------------------------------


e---5-\-----------------------------------------------------------------
B-----------------7~----------------------------------------------------
G-------2-2/4----7~-----------------------------------------------------
D---------------7~------------------------------------------------------
A-----------------------------------------------------------------------
E-----------------------------------------------------------------------


Part 3

e-----------------------------------------------------------------------
B-----------------------------------------------------------------------
G-----------------------4---6---4h6p4-----------------------------------
D---4---4---5-5/7---7-----------------7~--------------------------------
A-----------------------------------------------------------------------
E-----------------------------------------------------------------------


e-----------------------------------------------------------------------
B-----------------------------------------------------------------------
G-----------------------4---6---4h6p4-----------------------------------
D---4---4---5-5/7---7-----------------7~--------------------------------
A-----------------------------------------------------------------------
E-----------------------------------------------------------------------


e-----------------------------------------------------------------------
B-----5-----------5---------5-----5-------------------------------------
G---------7---4-----7---4-----7-4---7---4-------------------------------
D-----------------------------------------------------------------------
A-----------------------------------------------------------------------
E-----------------------------------------------------------------------


e-----------------------------------------------------------------------
B---5-----5-----5-----5-----5-------------------------------------------
G-----7-4---7-4---7-4---7-4---7-4-7-\----------2~-----------------------
D-------------------------------------0---/4----------------------------
A-----------------------------------------------------------------------
E-----------------------------------------------------------------------


e-----------------------------------------------------------------------
B-----------------------------------------------------------------------
G-----------------------------------------------------------------------
D---2---2---4---5-4---7---5---4-5-4---7-5~------------------------------
A-----------------------------------------------------------------------
E-----------------------------------------------------------------------


e-----------------------------------------------------------------------
B-----------------------------------------------------------------------
G-----------------------------------------------------------------------
D---7-\---------0~------------------------------------------------------
A-------0-0h2-----------------------------------------------------------
E-----------------------------------------------------------------------


e---0---0---2---3-2---5---3---2-3-2---5-3~------------------------------
B---2---2---3---5-3---7---5---3-5-3---7-5~------------------------------
G-----------------------------------------------------------------------
D-----------------------------------------------------------------------
A-----------------------------------------------------------------------
E-----------------------------------------------------------------------


e---5-\-----------------------------------------------------------------
B-----------------7~----------------------------------------------------
G-------2-2/4----7~-----------------------------------------------------
D---------------7~------------------------------------------------------
A-----------------------------------------------------------------------
E-----------------------------------------------------------------------


Part 4

e-----------------------------------------------------------------------
B-----------------------------------------------------------------------
G-----------------------4---6---4h6p4-----------------------------------
D---4---4---5-5/7---7-----------------7~--------------------------------
A-----------------------------------------------------------------------
E-----------------------------------------------------------------------


e-----------------------------------------------------------------------
B-----------------------------------------------------------------------
G-----------------------4---6---4h6p4-----------------------------------
D---4---4---5-5/7---7-----------------7~--------------------------------
A-----------------------------------------------------------------------
E-----------------------------------------------------------------------