20151205

JASON MRAZ FLY ME TO THE MOON TAB (ACOUSTIC VERSION)

Jason Mraz plays Fly Me To The Moon with a Venezuelan cuatro.
The tuning is the same as the 4 higher strings on a normal guitar - so DGBE.
See the TAB under the video.


JASON MRAZ FLY ME TO THE MOON TAB (ACOUSTIC VERSION)

PDF >>

Chords


    Am        Dm        G       C maj7       F          F6

e---5---------5---------3---------3----------1----------1---------------
B---5---------6---------3---------5----------1----------3---------------
G---5---------7---------4---------4----------2----------2---------------
D---7---------7---------5---------5----------3----------3---------------

   
    E7        A7        E

e---7---------5---------12----------------------------------------------
B---5---------5---------9-----------------------------------------------
G---7---------6---------9-----------------------------------------------
D---6---------5---------9-----------------------------------------------



Am            Dm
Fly me to the moon

           G              C maj7
And let me play among the stars

     F                 F6
And let me know what spring is like

 E7              Am
On Jupiter and Mars




   Dm         G       C maj7   Am
In other words   hold my hand

  Dm            G         C maj7    E7
In other words,   Darling kiss me



     Am                 Dm
And fill my heart with joy

            G            C maj7
And let me sing forever more

        F                F6
'Cause you are all I've longed for,

          E7            Am
All I've worshipped and all I've adored



   Dm          G              E7   A7
In other words    please be true

   Dm          G    C maj7   Am
In other words,   In other words

   Dm          G
In other words,    I love you



Bridge

e-------8-------8------------7------------7-----8-----------------------
B-------------8-----8--------8---8---10---------------------------------
G----------------------------9------------------------------------------
D---10----------------10.----9------------------------------------------


e--------------------------------------------8--------------------------
B-------10.------10-----------------8-----------------------------------
G---------------------10--------9-----9---------------------------------
D---10---------10-------10-----10---------10----------------------------


e-----------------------------------------------------------------------
B-------10.------10-----------------8.----------5.----------------------
G-------10.-----------10--------9---------x-----5.----------------------
D---10---------10-------10-----10-----------7---------------------------


e------------------3-----------x-7---x-7-----7-7---x--------------------
B---------3.------3----3-------x-5---x-5-----5-5---x--------------------
G---x-----4.-----4-------4-----x-7---x-7-----7-7---x--------------------
D-----5---------5------------5-x-6---x-6-----6-6---x--------------------



     Am                 Dm
And fill my heart with joy

            G            C maj7
And let me sing forever more

        F                F6
'Cause you are all I've longed for,

          E7                     Am
All I've worshipped and all I've adored



   Dm          G              E7   E
In other words    please be true

   Dm          G    C maj7   Am
In other words,   In other words

   Dm          G
In other words,    I love you




Finish

e----------8.----7-5.----3.----------1-----------1.---------------------
B------8-------------------------1---------1----------------------------
G-----9-------------------------2---------------------------------------
D---10-------------------------3----------------------------------------


e------5.---5/7---7-7---7-x---------------------------------------------
B------6.---6/8---8-8---8-x-----4-----4/5~------------------------------
G------5.---5/7---7-7---7-x-----4-----4/5~------------------------------
D------7.---7/9---9-9---9-x-----4-----4/5~------------------------------



  Something like that ...