20160116

ADAM LEE HUMAN NATURE TAB (INSTRUMENTAL GUITAR COVER OF MICHAEL JACKSON'S SONG)


Adam Lee plays a nice instrumental guitar cover of Human Nature.
Original song by Michael Jackson.
See the TAB under the video.


ADAM LEE HUMAN NATURE TAB

PDF >>

Part 1

e-----------------------------------------------------------------------
B-----------------------------------------------------------------------
G----------7.-----------------------------------------------------------
D---7h9~-------9/11\9/11~-----9-7~------7-7h9.-7.-----------------------
A-------------------------------------------------7h9.-9\7~-------------
E-----------------------------------------------------------------------


e-----------------------------------------------------------------------
B-----------------------------------------------------------------------
G---------7.---------9--------------------------------------------------
D---7-7h9-----9/11~----11\9p7-7h9~----p7~-------------7~----------------
A-----------------------------------------------7-7-9-------------------
E-----------------------------------------------------------------------
                                                x x x

e-----------------------------------------------------------------------
B-----------------------------------------------------------------------
G---------7.----------------9-------------------------------------------
D---7h9~------9/11-9/11~-----11\9p7-7~-----7-7h9.-7.--------------------
A----------------------------------------------------7h9.-9\7~----------
E-----------------------------------------------------------------------



e-----------------------------------------------------------------------
B-----------------------------------------------------------------------
G---------7.--7h9~----9/11.----7~-----\---------------------------------
D---7-7h9---------------------------------------------------------------
A-----------------------------------------------------------------------
E-----------------------------------------------------------------------


e-----------------------------------------------------------------------
B-----------------------------------------------------------------------
G----------7.-----------------9-----------------------------------------
D---7h9~-------9/11-9/11~------11\9p7-7~---7h9-7-7h9.-7.----------------
A--------------------------------------------------------7h9.-9\7~------
E-----------------------------------------------------------------------


e-----------------------------------------------------------------------
B-----------------------------------------------------------------------
G---------7.---------9--------------------------------------------------
D---7-7h9-----9/11~----11\9p7-7h9~------p7~----\---------7~-------------
A--------------------------------------------------7-7-9----------------
E-----------------------------------------------------------------------
                                                   x x x

e-----------------------------------------------------------------------
B-----------------------------------------------------------------------
G----------7.-----------------9-----------------------------------------
D---7h9~-------9/11-9/11~------11\9p7-7~---7h9-7-7h9.-7.----------------
A--------------------------------------------------------7h9.-9\7~------
E-----------------------------------------------------------------------


e-----------------------------------------------------------------------
B-----------------------------------------------------------------------
G---------7.--7h9~----9/11.----7~-----\---------------------------------
D---7-7h9---------------------------------------------------------------
A-----------------------------------------------------------------------
E-----------------------------------------------------------------------


Part 2

e-----------------------------------------------------------------------
B---------------------------------7-------------------------------------
G--------------------9--------------9.--7.--6.--7.----------------------
D---7h9~----9/11~-----11\9p7-7~---------------------9/11.--9.--7~-------
A-----------------------------------------------------------------------
E-----------------------------------------------------------------------


e-----------------------------------------------------------------------
B-----------------------------------------------------------------------
G---------------------------7-7-7-9-7.----------------------------------
D---7h9~--\--9/11\9/11~--\--------------9~------------------------------
A-----------------------------------------------------------------------
E-----------------------------------------------------------------------


e-----------------------------------------------------------------------
B---10h12~----12(14)--(12)(14)---(12)-10~-------------------------------
G-----------------------------------------------------------------------
D-----------------------------------------------------------------------
A-----------------------------------------------------------------------
E-----------------------------------------------------------------------


e---14-12.--10.--9.--10.------------------------------------------------
B-------------------------12(14).--12.--10~-----------------------------
G-----------------------------------------------------------------------
D-----------------------------------------------------------------------
A-----------------------------------------------------------------------
E-----------------------------------------------------------------------


e---------------------------------10-10-10-12-10.-----------------------
B---10h12.----12(14)(12)(14).----------------------12~------------------
G-----------------------------------------------------------------------
D-----------------------------------------------------------------------
A-----------------------------------------------------------------------
E-----------------------------------------------------------------------