20160109

AIRLINE 59 2P DEMO - RJ RONQUILLO TAB (EASTWOOD GUITARS)

RJ Ronquillo plays a cool demo for the Eastwood Airline '59 2P guitar.
Killer sound in standard tuning !!!
See the TAB of the first minute under the video.



RJ RONQUILLO EASTWOOD AIRLINE 59 2P DEMO TAB

PDF >>

e-----------------------------------------------------------------------
B------------------------------------------------5---5.-----------------
G---5-5-5-5.--4-6/7-7.--------------/7-7-7-7.--5-5---5.-----------------
D---7-7-7-7.--6-8/9-9.--------------/9-9-9-9.--7---------------2-2------
A-----------------------------2-2------------------------3~--3-----0.---
E-----------------------4~--4-----0.------------------------------------


e---------------------------------0-0-0-0-0-0-0-0.--0.--0-0.------------
B---------------------------------5-6-5-4-3-2-1-0.--1.--1-1.------------
G--/5-5-5-5.--4-7---7.------------------------------2.--2-2.--5-5-5~----
D--/7-7-7-7.--6-9---9.------------------------------2.--2-2.--4-4-4~----
A-----------------------------2-/-------------------0.--0-0.--5-5-5~----
E-----------------------4~----------------------------------------------


e--------------------------------------------------------0.-------------
B--------------------------------------------------------0.-------------
G-----------------------------------------------------------------------
D-----------------------------------------------------------------------
A------------------------------3-5.--6(7)~------------------------------
E--5-3-5-5-5-3-5~--5-3-5~--5-5------------------------------------------




e------------------------------------------------------0----------------
B----------------------------------------------0---1--------------------
G--------------------------------------------2--------------------------
D------------------------------------------2----------------------------
A-----7.--8.--7-7---\--3\2-3.--2-3-------0------------------------------
E----------------------------------0-4/5--------------------------------


e-----------------------------------------------------------------------
B---2---2-2-2-3.--5---5~------5-----3-----3-5.--6---6~------------------
G---2-------------6-----------------2-----------7-----------------------
D---2-------------5---------5---0-3-----3-------7-----------------------
A---0-------------------------------------------------------------------
E-----------------------------------------------------------------------


e---------------------------------------------0-------------------------
B-----6-5.----------------------------------------1---------------------
G-----------5.--5-5-4.--7\--4-4-4-5.--2---------------------------------
D---7-----------------------6-6-------------2---------------------------
A-----------------------------------------0-----------------------------
E-----------------------------------------------------------------------


e-----------------------------------------------------------------------
B------------------------------------------------5.--5.-----------------
G---5-5-5-5.--4-6/7-7.--------------/7-7-7-7.--5-5.--5.-----------------
D---7-7-7-7.--6-8/9-9.--------------/9-9-9-9.--7---------------2-2------
A-----------------------------2-2------------------------3~--3-----0.---
E-----------------------4~--4-----0.------------------------------------


e-----------------------------------------------------------------------
B------------------------------------------------5----------------------
G--/5-5-5-5.--4-6/7-7.--------------/7-7-7-7.--5-----5---4--------------
D--/7-7-7-7.--6-8/9-9.--------------/9-9-9-9.--7-------------6---7------
A-----------------------------2-2---------------------------------------
E-----------------------4~--4-----0.------------------------------------


e-------------------------------------------------------------5---------
B-----6.--5.--4-5-------------5---6---5---------------------5-----5.----
G-------------------------7---------------7p5p4-7-5-----5---------------
D---------------------6-----------------------------7-------------------
A-----------------------------------------------------------------------
E-----------------------------------------------------------------------


e-----------------------------------------------------------------------
B-----------------------------------------------------------------------
G-----5---7-5-/8-8---8-8-8.--8-7.---------------------------------------
D---7------------7---7-7-7.--7-6.---------------------------------------
A----------------8---8-8-8.---------------------------------------------
E-----------------------------------------------------------------------


e--------------------5.--5-5.--5-5-5~-----------------------------------
B--------------------5.--5-5.--7-7-7~-----------------------------------
G---7(9)---7p5-------5.--5-5.--5-5-5~-----------------------------------
D--------------7-5-7-----7-7.--7-7-7~-----------------------------------
A-----------------------------------------------------------------------
E-----------------------------------------------------------------------