20160124

ZOE MCCULLOCH & MASON WILLIAMS ELECTRICAL GAS TAB (CLASSICAL GAS)


Zoe McCulloch & Mason Williams play Electrical Gas.
See the TAB under the video.



ZOE MCCULLOCH & MASON WILLIAMS ELECTRICAL GAS TAB

PDF >>

Part 1

e-----------------------------------------------------------------------
B---13------------13-----12---------------------------------------------
G----------14-----------------------------------------------------------
D-----------------------------------------------------------------------
A-----------------------------------------------------------------------
E-----------------------------------------------------------------------


e-----------------------------------------------------------------------
B-----------------------------------------------------------------------
G---14(16)-----(14)-12---14---------------------------------------------
D-----------------------------------------------------------------------
A-----------------------------------------------------------------------
E-----------------------------------------------------------------------


e-----------------------------------------------------------------------
B-------------12h13p12--12---13---12------------------------------------
G--------14-----------14------------------------------------------------
D---14------------------------------------------------------------------
A-----------------------------------------------------------------------
E-----------------------------------------------------------------------



e-----------------------------------------------------------------------
B-----------------------------------------------------------------------
G---14-------14(16)---(14)---12---12---14---14/16-14--------------------
D-----------------------------------------------------------------------
A-----------------------------------------------------------------------
E-----------------------------------------------------------------------


e----------------------------------------------------0------------------
B--/12--12-13--13-15-----15(17)-----(15)-13----15---------13----12------
G-----12-----12---------------------------------------------------------
D-----------------------------------------------------------------------
A-----------------------------------------------------------------------
E-----------------------------------------------------------------------


Part 2

e-----------------------------------------------------------------------
B-----------------------------------------------------------------------
G---4h5p4-5-2---5---4----------------2(4)(2)-0-2---2/4-2----------------
D-----------------------------------------------------------------------
A-----------------------------------------------------------------------
E-----------------------------------------------------------------------


e-----------------------------------------------------------------------
B-----------------------------------------------------------------------
G---4h5p4-5-2---5---4----------------2/4\2-0-2---2/4-2-----4-5-4-2-0----
D-----------------------------------------------------------------------
A-----------------------------------------------------------------------
E-----------------------------------------------------------------------


e-----------------------------------------------------------------------
B-----------------------------------------------------------------------
G---4h5p4-5-2---5---4----------------2(4)(2)-0-2---2/4-2----------------
D-----------------------------------------------------------------------
A-----------------------------------------------------------------------
E-----------------------------------------------------------------------


e-----------------------------------------------------------------------
B-----------------------------------------------------------------------
G---4h5p4-5-2---5---4----------------2(4)(2)-0-2---2/4-2-------4--------
D-----------------------------------------------------------------------
A-----------------------------------------------------------------------
E-----------------------------------------------------------------------


e-----------------------------------------------------------------------
B--------------------------------------------5-----0--------------------
G---5-------7-------------7(9)---(7)---5---7-----5-----2-----0-2--------
D-----------------------------------------------------------------------
A-----------------------------------------------------------------------
E-----------------------------------------------------------------------


e------------------------------------------------------------00--00--00-
B-----------------------------------5-----6-----7-----8-----9--10--12---
G--0-2-2-4---0-4-5---0-5-7\---0---7---5-----5-----7-----7---------------
D-----2---------------------------------5-----7-----7-----9-------------
A-----------------------------------------------------------------------
E-----------------------------------------------------------------------





DOWNLOAD THE COMPLETE TAB HERE





  • click 'Buy Now' and send $6  (or 'Add to Cart' if you want to buy more tabs)
  • add your e-mail address
  • you will get a confirmation e-mail with your download link (in a few seconds) 
  • download the full text tab
  • then start to learn the full song - that's all

IF YOU DIDN'T GET YOUR DOWNLOAD LINK, PLEASE CONTACT US HERE >>

SEND YOUR GUITAR TAB REQUEST HERE >>
MORE ON GUITAR TABS A-Z >>

Guitar Pro: a complete workshop for guitarists at an affordable price