20160221

ELLERT NORDMARK LAST DATE TAB


Ellert Nordmark plays Last Date, very nice instrumental guitar cover.
Great Fender Stratocaster!
See the TAB under the video.



ELLERT NORDMARK LAST DATE TAB

GP5 + GP6 + PDF >>

Part 1

e-----------------------------------------------------------------------
B---------------------------8-9-10-8------------------------------------
G----------------------------------------9-7-5-5h7----------------------
D-----------------------------------------------------5h7---------------
A---------------------------------------------------8-------------------
E---3-3-3-5-5-5-7-7-7-8-------------------------------------------------
    x x x x x x x x x

e-----------------------------------------------------------------------
B---------------8-9-10-8------------------------------------------------
G----------------------------9-7-5-5h7----------------------------------
D---7-5-----------------------------------5h7---------------------------
A-------8-7-----------------------------8-------------------------------
E-----------------------------------------------------------------------


e-----------------------------------------------------------------------
B---------------8-9-10-8------------------------------------------------
G----------------------------9-7-5-5h7----------------------------------
D---7-5-----------------------------------5h7---------------------------
A-------8-7-----------------------------8-------------------------------
E-----------------------------------------------------------------------



e-----------------------------------------------------------------------
B-------5---------5.-6-------5.-6.-8-------6/8-10-----------------------
G---5-7.--------7-------------------------------------------------------
D-----------------------------------------------------------------------
A-----------------------------------------------------------------------
E-----------------------------------------------------------------------


e-----------------------------------------------------------------------
B---8/10-8-------------8------------------------------------------------
G----------10-9----------9-7--------------------------------------------
D-----------------10---------------10-9-10-------9-7--------------------
A----------------------------------------------------10---\-------------
E-----------------------------------------------------------------------


Part 2
                (the dog comes in ... )
e-----------------------------------------------------------------------
B---------------8h10-----8----------------------------------------------
G------------------------------9-7-5-5h7--------------------------------
D-------------------------------------------5h7-------------------------
A-----0-2-3-------------------------------8-----------------------------
E---3-------------------------------------------------------------------


e-----------------------------------------------------------------------
B-------------------8-9-10-8--------------------------------------------
G--------------------------------9-7-5-5h7------------------------------
D-----5h7-5-----------------------------------5h7-------5h7-5-----------
A---8-------8-7-----------------------------8---------8-------8-7-------
E-----------------------------------------------------------------------




DOWNLOAD THIS TAB IN GUITAR PRO



  • click 'Free Download'
  • add your e-mail address
  • you will get an e-mail with your download links (in a few seconds)
  • download the Guitar Pro 6 tab + GP5 + PDF for free
  • and that's all ...


Guitar Pro: a complete workshop for guitarists at an affordable price