20160201

IN THE SUMMERTIME SLASH SOLO TAB (BILLY IDOL, SLASH, DEREK SHERINIAN VERSION)

Slash plays a great guitar solo in this song about 1:25.
In the summertime originally by Mungo Jerry.
See the solo tab under the video.



IN THE SUMMERTIME SLASH SOLO TAB

PDF >>

e----------12-----------------------------------------------------------
B--------12--15.---17~-------17p15--14-p12------------------------------
G---12h13-------------------------16------14--12h13~--------------------
D-----------------------------------------------------------------------
A-----------------------------------------------------------------------
E-----------------------------------------------------------------------


e----------12-----------------------------------------------------------
B--------12--15.--17~----17(20)----(17)-12----15-(15)(14)p12----12------
G---12h13---------------------------------14----------------14----------
D-----------------------------------------------------------------------
A-----------------------------------------------------------------------
E-----------------------------------------------------------------------


e-----------------------------------------------------------------------
B--------12---14---12-------12------------------------------------------
G---12h13---13---13---11/13---13\11p9-11--9----9------------------------
D------------------------------------------11---------------------------
A-----------------------------------------------------------------------
E-----------------------------------------------------------------------



e------------12---------------------------12----------------------------
B--------------------------------12(14)-----(14)-(12)--10-12.-----------
G---11(13)-----(13)-(11)-9-11.-9----------------------------------------
D-----------------------------------------------------------------------
A-----------------------------------------------------------------------
E-----------------------------------------------------------------------


e-----------------------------------------------------------------------
B---10(12)(10)-8---10.-8(9)---------------------------------------------
G----------------9----------9\7----7-----------7(9)~--------///19\\\----
D-------------------------------/9---9\7p5---7--------------------------
A------------------------------------------7----------------------------
E-----------------------------------------------------------------------