20160226

PIRATES OF THE CARIBBEAN THE BLACK PEARL TAB (CLASSICAL GUITAR COVER BY JUERGEN SCHENK)

Jürgen Schenk plays a great classical guitar arrangement of The Black Pearl
from Pirates of the Caribbean. He is using Dropped D tuning !!!
See the TAB under the video.



PIRATES OF THE CARIBBEAN THE BLACK PEARL TAB

GP5 + GP6 + PDF >>

Part 1

e-----------------------------------------------------------------------
B-----------------------------------------------------------------------
G---------------------------1--2--1-------------------------------------
D---0--1--0--1--0--1--3--4-----------4--3--4-----1----------------------
A---0-----------------------------------------3-------------------------
D---0-----------------------0-------------------------------------------


e-----------------------------------------------------------------------
B-----------------------------------------------------------------------
G---------------------------1--2--1-------------------------------------
D---0--1--0--1--0--1--3--4-----------4--3--4-----1----------------------
A---------------------------------------------3-------------------------
D---0-----------------------0-------------------------------------------


e-----------------------------------------------------------------------
B-----------------------------------------------------------------------
G-----------------------------------------------------------------------
D---0--1--0--1--0--1--3--4--3--1--3--4--3--1-----1----------------------
A---------------------------------------------3-------------------------
D---0-----------------------0-------------------------------------------



e-----------------------------------------------------------------------
B-----------------------------------------------------------------------
G---------------------------1-------------------------------------------
D---0--1--0--1--0--1--3--4-----4--3--1--0-------------------------------
A-----------------------------------------------------------------------
D---0-----------------------0-----------0-----0-------------------------


e-----------------------------------------------------------------------
B-----------------------------------------------------------------------
G--2---------3----------------------------------------------------------
D-----------------------------------------------0---------0---------0---
A--0---------1-----------------------------5---------3---------2--------
D-------0---------0----0----0----0----0----5---------3---------2--------



Part 2

e-----------------------------------------------------------------------
B-----------------------------------------------------------------------
G-----------------------------------------------------------------------
D---0---0-1-0-1-0---0-1-0-1-0---0-1-0-1-0---3-1-3-1---------------------
A---0-------------------------------------------------------------------
D---0-----------0-----------0-----------0---3-1-3-1---------------------


e-----------------------------------------------------------------------
B-----------------------------------------------------------------------
G-----------------------------------------------------------------------
D---0---0h1-0h1-0---0h1-0h1-0---0h1-0h1-0---3-1-3-1---------------------
A-----------------------------------------------------------------------
D---0-----------0-----------0-----------0---3-1-3-1---------------------


e-----------------------------------------------------------------------
B-----------------------------------------------------------------------
G-----------------------------------------------------------------------
D---0-----------2-----------3-----------5---7---8---7---8---11----------
A-----------------------------------------------------------------------
D---0---0---0---2---2---2---3---3---3---5---7---8---7---8---11----------


e-----------------------------------------------------------------------
B-----------------------------------------------------------------------
G------------------------------------------------0----------------------
D---12---0-2-3-0-2---0-------0---0-2-3-0-2---3--------------------------
A----------------3-------3---------------3------------------------------
D---12-----------------------0------------------------------------------


e-----------------------------------------------------------------------
B-----------------------------------------------------------------------
G---0---0-2-3-0---------------------------------------------------------
D---------------3---2---0---2---0-------0-------------------------------
A---------------------------3-------3-------------0---------------------
D---5-----------0-----------------------0---0h2h3-----------------------


e---------0-1---0-----------------0-1---0---1---3-----------------------
B---3---3-----3-1---3---1---3---3-----3-1-------------------------------
G---2-----------0-----------2-----------0-------------------------------
D---0-----------------------0-------------------------------------------
A---------------3-----------------------3-------------------------------
D---0-----------------------0-------------------------------------------


e---3---3-5-6-3-------------0-------------------------------------------
B---3-----------6---5---3---1---3---1---3-----------3-------------------
G---3-----------------------0-----------2---------2-----------2---------
D---------------0-------------------------------0-----------0-----------
A---------------------------3-----------------0-----------0-------------
D---5-----------------------------------0---0-----------0---------------



DOWNLOAD THE COMPLETE TAB HERE





  • click "Buy Now" and send $6  (or "Add to Cart" if you buy more tabs)
  • add your e-mail address
  • you will get a confirmation e-mail with your download links (in a few seconds)
  • download the full Guitar Pro 6 tab + GP5 + PDF
  • then start to learn the full song - that's all ...

IF YOU DIDN'T GET YOUR DOWNLOAD LINK, PLEASE CONTACT US HERE >>

SEND YOUR GUITAR TAB REQUEST HERE >>
MORE ON GUITAR TABS A-Z >>

Guitar Pro: a complete workshop for guitarists at an affordable price