20160210

SLASH & MYLES KENNEDY PATIENCE TAB (ACOUSTIC LIVE @ MAX SESSIONS)

Slash & Myles Kennedy play Patience live at MAX Sessions.
They both use half step down tuning. The songs starts about 2:20.
See the TAB Slash's guitar playing under the video.


SLASH & MYLES KENNEDY PATIENCE TAB (ACOUSTIC)

PDF >>

Intro

eb---0-------0----------------------------------------------------------
Bb---1---------------3p1---0h1------------------------------------------
Gb---0-------------------------0---0-----0---------0-------0------------
Db---2-------------2-----2-------2-----0-----------------0---0-----0----
Ab---3-----------3-------------------2---------0-------2-------2--------
Eb---------------------------------------------------3-----------3------


eb--------------------------------------------0h2---2-3-2-----2---------
Bb--------2h3-2-------------2-3-2---------3-------3-------3-----3---8~--
Gb------2-------2---2-----2-------2-----2---2---------------2----/9-----
Db----2-----------2-----2-----------2-0---------------------------------
Ab--0-----------------0-------------------------------------------------
Eb----------------------------------------------------------------------


eb-------------------10-----------------------7-8-9-10------------------
Bb-----10-8-10(12)-----(12)(10)p8-10-8-10(12)----------10(12).---8~-----
Gb----------------------------------------------------------------------
Db----------------------------------------------------------------------
Ab----------------------------------------------------------------------
Eb----------------------------------------------------------------------



eb---------------------7/8/9~--------------10.----8.----7~----7\5~------
Bb---10---10~----------x------------------------------------------------
Gb------9--------------7/8/9~------------11-----9-----7-----7--\5~------
Db----------------------------------------------------------------------
Ab----------------------------------------------------------------------
Eb----------------------------------------------------------------------


eb---0---0-0---0-0-0-3---3-3---3-3-3-0---0-0---0---------0-0---0-0-0----
Bb---1---1-1---1-1-1-0---0-0---0-0-0-1---1-1---1---------0-0---0-0-0----
Gb---0---0-0---0-0-0-0---0-0---0-0-0-0---0-0---0---------0-0---0-0-0----
Db---2---2-2---2-2-2-0---0-0---0-0-0-2---2-2---2---------2-2---2-2-2----
Ab---3---3-3---3-3-3-2---2-2---2-2-2-3---3-3---3---------2-2---2-2-2----
Eb-------------------3---3-3---3-3-3-------------3-2-0---0-0---0-0-0----


eb---0---0-0---0-0-0-3---3-3---3-3-3-2----------------------------------
Bb---1---1-1---1-1-1-0---0-0---0-0-0-3----------------------------------
Gb---0---0-0---0-0-0-0---0-0---0-0-0-2----------------------------------
Db---2---2-2---2-2-2-0---0-0---0-0-0-0----------------------------------
Ab---3---3-3---3-3-3-2---2-2---2-2-2------------------------------------
Eb-------------------3---3-3---3-3-3------------------------------------


Verse

eb----------------------------------------------------------------------
Bb---------1---------3p1---0h1------------------------------------------
Gb-----------------0-----------0---0-----0---------0-------0------------
Db-------2-------2-------2-------2-----0-----------------0---0-----0----
Ab---3-------------------------------2---------0-------2-------2--------
Eb---------------------------------------------------3-----------3------


eb------------------------------------------------------------0---------
Bb---------2-2-------------2-3-2-------3-------3-------3--------3-------
Gb-------2-----2---2-----2-------2-------2-------2-------2--------2-----
Db-----2---------2-----2-----------2h4-----4-2-----2-0-----0--------0---
Ab---0---------------0--------------------------------------------------
Eb----------------------------------------------------------------------


eb----------------------------------------------------------------------
Bb---------1---------3p1---0h1------------------------------------------
Gb-----------0-----------------0---0-----0---------0-------0------------
Db-------2---------2-----2-------2-----0-----------------0---0-----0----
Ab---3-----------3-------------------2---------0-------2-------2--------
Eb---------------------------------------------------3-----------3------


eb-------------------------------------------------------------5--------
Bb---------2h3-2-------------2-3-2-------3-------5~------6-------7---0--
Gb-------2-------2---2-----2-------2-------2----------------------------
Db-----2-----------2-----2-----------2h4-----4-5-----5/6---6/7-----7\---
Ab---0-----------------0------------------------------------------------
Eb----------------------------------------------------------------------


eb---0---0-0---0-0-0-3---3-3---3-3-3-0---0-0---0------------------------
Bb---1---1-1---1-1-1-0---0-0---0-0-0-1---1-1---1------------------------
Gb---0---0-0---0-0-0-0---0-0---0-0-0-0---0-0---0------------------------
Db---2---2-2---2-2-2-0---0-0---0-0-0-2---2-2---2---------2/4--2--0h2-0--
Ab---3---3-3---3-3-3-2---2-2---2-2-2-3---3-3---3-------2----------------
Eb-------------------3---3-3---3-3-3-------------3-2-0------------------


eb---0---0-0---0-0-0-3---3-3---3-3-3-2---2-2-0h2-2-3---2-2-0---2-2-2----
Bb---1---1-1---1-1-1-0---0-0---0-0-0-3---3-3-3---3-3---3-3-3---3-3-3----
Gb---0---0-0---0-0-0-0---0-0---0-0-0-2---2-2-2---2-2---2-2-2---2-2-2----
Db---2---2-2---2-2-2-0---0-0---0-0-0-0---0-0-0---0-0---0-0-0---0-0-0----
Ab---3---3-3---3-3-3-2---2-2---2-2-2------------------------------------
Eb-------------------3---3-3---3-3-3------------------------------------


eb---0---0-0---0-0-0-3---3-3---------0---0-0----------------------------
Bb---1---1-1---1-1-1-0---0-0---------1---1-1----------------------------
Gb---0---0-0---0-0-0-0---0-0--0------0---0-0---0------------------------
Db---2---2-2---2-2-2-0---0-0-------0-2---2-2-------------0---0h2-2-0----
Ab---3---3-3---3-3-3-2---2-2----0h2--3---3-3-----------2---2------------
Eb-------------------3---3-3---------------------3-2-0------------------


eb---0---0-0---0-0-0-3---3-3---3-3-3-2---2-2-0h2-2-3---2-2-0---2-2------
Bb---1---1-1---1-1-1-0---0-0---0-0-0-3---3-3-3---3-3---3-3-3---3-3------
Gb---0---0-0---0-0-0-0---0-0---0-0-0-2---2-2-2---2-2---2-2-2---2-2------
Db---2---2-2---2-2-2-0---0-0---0-0-0-0---0-0-0---0-0---0-0-0---0-0------
Ab---3---3-3---3-3-3-2---2-2---2-2-2------------------------------------
Eb-------------------3---3-3---3-3-3------------------------------------


eb--222---2-2-0h2-2-3---2-2-0---2-2-222---2-2-0h2-2-3---2-2-0---2-2-2---
Bb--333---3-3-3---3-3---3-3-3---3-3-333---3-3-3---3-3---3-3-3---3-3-3---
Gb--222---2-2-2---2-2---2-2-2---2-2-222---2-2-2---2-2---2-2-2---2-2-2---
Db--000---0-0-0---0-0---0-0-0---0-0-000---0-0-0---0-0---0-0-0---0-0-0---
Ab----------------------------------------------------------------------
Eb----------------------------------------------------------------------


eb--2---2-2-0h2-2-3---2---0---------------------------------------------
Bb--3---3-3-3---3-------3-----3-----------------------------------------
Gb--2---2-2-2---2-----------------0-------------------------------------
Db--0---0-0-0---0---------------0---------------------------------------
Ab----------------------------------------------------------------------
Eb----------------------------------------------------------------------