20160304

JOHANNES LINSTEAD ELENI TAB (GUITAR PRO)

Johannes Linstead plays a relaxing guitar song called Eleni.
Very nice nylon guitar solo.
See the TAB under the video.



JOHANNES LINSTEAD ELENI TAB

GP5 + GP6 + PDF >>

Intro

G1
e------<12>----------------------------------------------------<12>-----
B-<12>------------------------------------------------------------------
G-----------------------------------------------------------------------
D-----------------------------------------------------------------------
A-----------------------------------------------------------------------
E-----------------------------------------------------------------------

G2
e---------------2p0-----------------------------------------------------
B-------------0-----0---------------------------------------------------
G-----------0---------------0-------------------0---------------0-------
D---------2---------------------------------2---------------4-------4---
A-----------------------------------0-2-3-----------5-------------------
E-------0---------------------------------------------------------------


G1
e-----------------------------------------------------------------------
B---<12>------------------------------------<7>-------------------<12>--
G--------------------------------------<5>------------------------------
D------------------------------------------------<5>--------------------
A-----------------------------------------------------------------------
E-----------------------------------------------------------------------

G2
e-----------2p0---------------------------------------------------------
B---------0-----0-------------------------1p0---------------------------
G-------0---------------0---------------0-----0-------------<7>---------
D-----2-------------------------------2---------0-----------<7>---------
A-------------------------------0-2-3-----------------------------------
E---0-------------------------------------------------------------------



G1
e---<12>----------------------------------------------------------------
B-----------------------------------------------------------------------
G---------------<7>-----------------<12>--------<5>---------------------
D-----------------------------------------------------------------------
A-----------------------------------------------------------------------
E-----------------------------------------------------------------------

G2
e-----------2p0---------------------------------------------------------
B---------0-----0-------------------------------------------------------
G-------0---------------0-------------------0---------------0-----------
D-----2---------------------------------2---------------4-------4-------
A-------------------------------0-2-3-----------5-----------------------
E---0-------------------------------------------------------------------


G1
e---<12>---------------------------------------<7>----------------------
B--------------------------------------<7>------------------------------
G---------------<7>-----------------------------------------------------
D-----------------------------------------------------------------------
A-----------------------------------------------------------------------
E-----------------------------------------------------------------------

G2
e-----------------------------------------------2-----------------------
B---------------0h1p0---------------------------0-----------------------
G-----------0-----------0-----------------------2-----------------------
D-------2-------------------2-----------1-------1-----------------------
A---3---------------------------3---2-------2---2-----------------------
E-----------------------------------------------------------------------


Verse

    Em                           C           D
e-----------------------------------------------------------------------
B-----------------------------------------------------------------------
G--------4h5p4-0-------------------------------------0.--0h2-2~---------
D----------------2-------------------2---4/5-4--------------------------
A--------------------------------3--------------------------------------
E-----------------------------------------------------------------------

    Em                           C               D
e-----------------------------------------------------------------------
B-----------------------------------------------------------------------
G----------4h5p4-0------------------------------------------------------
D------5.----------2---------7-7-7p5-5-5-5\4-4-4-4h5p4-0-0h2~-----------
A-----------------------------------------------------------------------
E-----------------------------------------------------------------------

    Em                           C           D
e-----------------------------------------------------------------------
B-----------------------------------------------------------------------
G--------4h5p4-0-------------------------------------0---0h2-2~---------
D----------------2-------------------2---4/5-4--------------------------
A--------------------------------3--------------------------------------
E-----------------------------------------------------------------------

    C                            B7                        
e-----------------------------------------------------------------------
B--------------------------------------------------4-7-4h7p4-5~---------
G-------4---0------------------------------------4----------------------
D--------------------------5p4-----------------4------------------------
A------------------------------7-6--------------------------------------
E-----------------------------------------------------------------------

    Em                           C           D
e-----------7-8-7-------------------------------------------------------
B-----------8-----8----------------------7h8-7~------8---8/10-10~-------
G-----------9-------9~---------------9----------------------------------
D--------------------------------10-------------------------------------
A-----------------------------------------------------------------------
E-----------------------------------------------------------------------

    Em
e----------7-8-7--------------------------------------------------------
B------8---8-----8------------------------------------------------------
G----------9-------9~---------------------------------------------------
D-----------------------------------------------------------------------
A-----------------------------------------------------------------------
E-----------------------------------------------------------------------



DOWNLOAD THE COMPLETE TAB HERE





  • click 'Buy Now' and send $6  (or 'Add to Cart' if you want to buy more tabs)
  • add your e-mail address
  • you will get a confirmation e-mail with your download links (in a few seconds)
  • download the full Guitar Pro 6 tab + GP5 + PDF
  • then start to learn the full song - that's all ...

IF YOU DIDN'T GET YOUR DOWNLOAD LINK, PLEASE CONTACT US HERE >>

SEND YOUR GUITAR TAB REQUEST HERE >>
MORE ON GUITAR TABS A-Z >>

Guitar Pro: a complete workshop for guitarists at an affordable price