20160320

THE ROLLING STONES STAR STAR TAB (GUITAR SOLO)

There is a great rock and roll guitar solo in Star Star by The Rolling Stones.
It starts about 2:08 on this record and finishes about 2:38.
See the solo TAB under the video.



THE ROLLING STONES STAR STAR TAB (GUITAR SOLO)

GP5 + GP6 + PDF >>

                F
e-----------------------------------------------------------------------
B-----------------------------------------------------------------------
G---12(14)---12(14)---(12)---10------12(14)-12(14)-12(14)(12)-10--------
D---------------------------------------------------------------12------
A-----------------------------------------------------------------------
E-----------------------------------------------------------------------

       C                                                   F
e-----------------------------------------------------------------------
B---13-----------------------13-----------------------------------------
G--------12(14)---(12)-10--10-----12(14)---(12)-10--10-12-(14)(12)------
D------------------------12-----------------------12--------------------
A-----------------------------------------------------------------------
E-----------------------------------------------------------------------

                                          C
e-----------------------------------------------------------------------
B-------------------------13(15)(13)-10---------------------------------
G---10-----12(14)(12)-10---------------12(14)---(12)-10--10-------------
D--------12-------------12-----------------------------12---------------
A-----------------------------------------------------------------------
E-----------------------------------------------------------------------



e-----------------------------------------------------------------------
B------------13-------13------------------------------------------------
G---12(14)-----12(14)---12(14)(12)-10--10-------------------------------
D------------------------------------12---------------------------------
A-----------------------------------------------------------------------
E-----------------------------------------------------------------------

    Bb
e-----------6-6-6~------------------------------------------------------
B---------6------------9'-6-11(13)(11)----------------------------------
G---8(10)------------------------------10-10~---------------------------
D-----------------------------------------------------------------------
A-----------------------------------------------------------------------
E-----------------------------------------------------------------------

    F
e-------------13--------------------------------------------------------
B----------13----16-13----------------13-----13-----------13'-----------
G---15(17)-------------15(17)-(15)-13-15(17)-13-----------13'-----------
D----------------------------------------------15-15~---15--------------
A-----------------------------------------------------------------------
E-----------------------------------------------------------------------

   C                                                Bb
e-----------------------------------------------------------------------
B---13-----13--13-15(16)(15)-13-15(16)(15)-13--13-13--13-13--13-13--13--
G---13-----13--13-15(16)(15)-13-15(16)(15)-13--13-13--13-13--13-13--13--
D--------15--15------------------------------15-----15-----15-----15----
A-----------------------------------------------------------------------
E-----------------------------------------------------------------------

    F 
e-------------13----13------13------------------------------------------
B----------13----16----16p13--------------------------------------------
G---15(17)---------------------15(17)-(15)p13---13--------13--\---------
D--------------------------------------------15---15~---15--------------
A-----------------------------------------------------------------------
E-----------------------------------------------------------------------




DOWNLOAD THIS SOLO TAB IN GUITAR PRO 


  • click 'Free Download'
  • add your e-mail address
  • you will get an e-mail with your download links (in a few seconds)
  • download the Guitar Pro 6 tab + GP5 + PDF for free
  • and that's all ...


Guitar Pro: a complete workshop for guitarists at an affordable price