20160313

THE RYDERS GEORGY GIRL TAB (LIVE IN TILBURG 2010)


The Ryders play Georgy Girl instrumentally live in Tilburg.
See the TAB of the lead guitar line under the video.



THE RYDERS GEORGY GIRL TAB

PDF >>

Part 1

e---10-------10-9----9-7.-------7-10---9.-------------------------------
B---------10------10----------8-----------------------------------------
G------11-------------------9-------------------------------------------
D-----------------------------------------------------------------------
A-----------------------------------------------------------------------
E-----------------------------------------------------------------------


e---10-------10-9----9-7.-------7-10.-----------------------------------
B---------10------10----------8-----------------------------------------
G------11-------------------9-------------------------------------------
D-----------------------------------------------------------------------
A-----------------------------------------------------------------------
E-----------------------------------------------------------------------



Part 2

e-----------------------------------------------------------------------
B-----------------------------------------------------------------------
G-----------2~------4---2-2~--------------------------------------------
D---0-------------------------------0-2-4-5-4---0---2-------------------
A-------------------------------------------------------0-0~------------
E-----------------------------------------------------------------------



e-----------------------------------------------------------------------
B-----------------------------------------------------------------------
G-------------------4~----2-0-------------------------------------------
D---0-2-4-5-4---0---------------4---4-2-0-2~----------------------------
A-----------------------------------------------------------------------
E-----------------------------------------------------------------------


e-----------------------------------------------------------------------
B---2-2~----2-3-2-------------------------------------------------------
G---2-2~----2-4-2-------------------------------------------------------
D-----------------------------------------------------------------------
A-----------------------------------------------------------------------
E-----------------------------------------------------------------------


e-----------------------------------------------------------------------
B-----------------------------------------------------------------------
G-----------2~------4---2-2~--------------------------------------------
D---0-------------------------------0-2-4-5-4---0---2-------------------
A-------------------------------------------------------0-0~------------
E-----------------------------------------------------------------------


e-----------------------------------------------------------------------
B-----------------------------------------------------------------------
G-------------------4~----4-5--4----------------------------------------
D---0-2-4-5-4---0-----------------5-5/7~---7-7~-------------------------
A-----------------------------------------------------------------------
E-----------------------------------------------------------------------


Part 3

e---7---9---10--9-----------------7------7------------------------------
B---7---7---7---7---10-7---8-10-8-8---10-----------7~-------------------
G--------------------------------------------7h9------------------------
D-----------------------------------------------------------------------
A-----------------------------------------------------------------------
E-----------------------------------------------------------------------
    x   x   x   x   x  x   x x  x x   x


e-----------------7------------7.---9~-------------9-7.----9-7\---------
B---7---9---11.---7---7-9---10------10~-----------10-8.---10-8\---------
G-----------------------------------------------------------------------
D-----------------------------------------------------------------------
A-----------------------------------------------------------------------
E-----------------------------------------------------------------------



Part 4

e-----------------------------------------------------------------------
B-----------------------------------------------------------------------
G-----------2~------4---2-2~--------------------------------------------
D---0-------------------------------0-2-4-5-4---0---2-------------------
A-------------------------------------------------------0-0~------------
E-----------------------------------------------------------------------


e-----------------------------------------------------------------------
B---------------------------2-------2-2-----3-3~------------------------
G-------------------4~----4-----4---------------------------------------
D---0-2-4-5-4---0-------------------------------------------------------
A-----------------------------------------------------------------------
E-----------------------------------------------------------------------


e---0---0-0-------------------------------------------------------------
B---2---2-2-----3-3~-------------3-5.--3-2.-----------------------------
G-----------------------------------------------------------------------
D-----------------------------------------------------------------------
A-----------------------------------------------------------------------
E-----------------------------------------------------------------------


Part 5

e---10-------10-9----9-7.-------7-10---9.-------------------------------
B---------10------10----------8-----------------------------------------
G------11-------------------9-------------------------------------------
D-----------------------------------------------------------------------
A-----------------------------------------------------------------------
E-----------------------------------------------------------------------


e---10-------10-9----9-7.-------7-10---9.-------------------------------
B---------10------10----------8-----------------------------------------
G------11-------------------9-------------------------------------------
D-----------------------------------------------------------------------
A-----------------------------------------------------------------------
E-----------------------------------------------------------------------



Part 6

e---7---9---10--9-----------------7------7------------------------------
B---7---7---7---7---10-7---8-10-8-8---10-----------7~-------------------
G--------------------------------------------7-9------------------------
D-----------------------------------------------------------------------
A-----------------------------------------------------------------------
E-----------------------------------------------------------------------
    x   x   x   x   x  x   x x  x x   x      x x


e-----------------7------------7.---9~-------------9-7.----9-7\---------
B---7---9---11.---7---7-9---10------10~-----------10-8.---10-8\---------
G-----------------------------------------------------------------------
D-----------------------------------------------------------------------
A-----------------------------------------------------------------------
E-----------------------------------------------------------------------


Part 7

e-----------------------------------------------------------------------
B-----------------------------------------------------------------------
G-----------2~------4---2-2~--------------------------------------------
D---0-------------------------------0-2-4-5-4---0---2-------------------
A-------------------------------------------------------0-0~------------
E-----------------------------------------------------------------------


e-----------------------------------------------------------------------
B---------------------------2-------2-2~----3-3~------------------------
G-------------------4~----4-----4---------------------------------------
D---0-2-4-5-4---0-------------------------------------------------------
A-----------------------------------------------------------------------
E-----------------------------------------------------------------------


e-----------------------------------------------------------------------
B---2---2-2~----3-3~-------------3-5.--3-2.-----------------------------
G-----------------------------------------------------------------------
D-----------------------------------------------------------------------
A-----------------------------------------------------------------------
E-----------------------------------------------------------------------


Part 8

e---10-------10-9----9-7.-------7-10.---9.------------------------------
B---------10------10----------8-----------------------------------------
G------11-------------------9-------------------------------------------
D-----------------------------------------------------------------------
A-----------------------------------------------------------------------
E-----------------------------------------------------------------------


e---10-------10-9----9-7.-------7-10.---9.------------------------------
B---------10------10----------8-----------------------------------------
G------11-------------------9-------------------------------------------
D-----------------------------------------------------------------------
A-----------------------------------------------------------------------
E-----------------------------------------------------------------------


e---10-------10-9----9-7.---10-12.---10--9.---0-------------------------
B---------10------10--------12-14.---12-10.---10------------------------
G------11-------------------------------------11------------------------
D---------------------------------------------0-------------------------
A-----------------------------------------------------------------------
E-----------------------------------------------------------------------