20160406

DIGIMON LA TABKI YA SAGHIRI TAB (COVER BY HIDA, لا تبكي يا صغيري ابطال الديجيتال TAB)

Digimon - La Tabki Ya Saghiri played on acoustic guitar.
Capo on 2nd fret but the guitar is tuned down 2 steps - so it's actually a normal standard tuning. See the TAB under the video.



DIGIMON LA TABKI YA SAGHIRI TAB

GP5 + GP6 + PDF >>

Part 1

e-----------5/7-5~-----------7-9-9/10-----9--\--7.--5~------7~----------
B-------5.--------------------------------------------------------------
G---4/6-----------------------------------------------------------------
D-----------------------------------------------------------------------
A-----------------------------------------------------------------------
E-----------------------------------------------------------------------


e-----------5/7-5~-----------7-9-9/10-----9-- \--7.--5~------7~----------
B-------5.--------------------------------------------------------------
G---4/6-----------------------------------------------------------------
D-----------------------------------------------------------------------
A-----------------------------------------------------------------------
E-----------------------------------------------------------------------


e---5~-----------------------------------------9/10--9.-----------------
B-------------------------------5/7-7~-------------------10-------------
G-----------------------------------------------------------9.----------
D-----------------------------------------------------------------------
A-----------------------------------------------------------------------
E-----------------------------------------------------------------------



Part 2

e-----------------------------------------------------------------------
B---------------------5-3h5p3-2---0-------------------------------------
G---2/4-4/6-6-6~----------------------2/4-4\2-2~--2-/-4-4/6-------------
D-----------------------------------------------------------------------
A-----------------------------------------------------------------------
E-----------------------------------------------------------------------


e-------------------5-4h5p4-2---0---------------------------------------
B-----5-5/7-7-7~--------------------3---2h3p2-0-0-----------------------
G---6-----------------------------------------------2/4~----------------
D-----------------------------------------------------------------------
A-----------------------------------------------------------------------
E-----------------------------------------------------------------------


e-----------------------------------------------------------------------
B---------------------5---3h5p3-2-2-------------------------------------
G-----2-4-4/6-6-6~------------------2--h4.--4p2-2-2-----4/6~------------
D---2-------------------------------------------------------------------
A-----------------------------------------------------------------------
E-----------------------------------------------------------------------




DOWNLOAD THIS TAB IN GUITAR PRO



  • click 'Free Download'
  • add your e-mail address
  • you will get an e-mail with your download links (in a few seconds)
  • download the Guitar Pro 6 tab + GP5 + PDF for free
  • and that's all ...


Guitar Pro: a complete workshop for guitarists at an affordable price