20160406

DOUGIE MACLEAN CALEDONIA TAB


Dougie MacLean sings Caledonia - the nr. 1 song of Scotland.
Very nice guitar chords in a special tuning CGCGCE with Capo on the 4th.
See the TAB under the video.



DOUGIE MACLEAN CALEDONIA TAB

GP5 + GP6 + PDF >>

Intro

e-----------------------------------------------------------------------
C----------0-----------------0-----------------0-----------------0------
G-------0-----0-----------0-----0-----------0-----0-----------0-----0---
C----0-----------0-----5-----------0-----7-----------0-----9-----------9
G-5-----------5-----7-----------7-----9-----------9-----10----------10--
C-----------------------------------------------------------------------


e-0--------0------------------------------------------------------------
C----0--------0---------------------------------------------------------
G-------0--------0------------------------------------------------------
C-----------------------------------------------------------------------
G-10----------10--------------------------------------------------------
C-----------------------------------------------------------------------


Verse

e-----------------------------------------------------------------------
C----------0-----------------0-----------------0-----------------0------
G-------0-----0-----------0-----0-----------0-----0-----------0-----0---
C----0-----------0-----5-----------0-----7-----------0-----9-----------0
G-5-----------5-----7-----------7-----9-----------9-----10----------10--
C-----------------------------------------------------------------------



e-----------------------------------------------------------------------
C----------0-----------------0-----------------0-----------------0------
G-------0-----0-----------0-----0-----------0-----0-----------0-----0---
C----0-----------0-----5-----------0-----7-----------0-----9-----------9
G-5-----------5-----7-----------7-----9-----------9-----10----------10--
C-----------------------------------------------------------------------


e-0--------0------------------------------------------------------------
C----0--------0---------------------------------------------------------
G-------0--------0------------------------------------------------------
C-----------------------------------------------------------------------
G-10----------10--------------------------------------------------------
C-----------------------------------------------------------------------


e-----------------------------------------------------------------------
C----------0-----------------0-----------------0-----------------0------
G-------0-----0-----------0-----0-----------0-----0-----------0-----0---
C----0-----------0-----5-----------0-----7-----------0-----9-----------0
G-5-----------5-----7-----------7-----9-----------9-----10----------10--
C-----------------------------------------------------------------------


e-----------------------------------------------------------------------
C----------0-----------------0-----------------0-----------------0------
G-------0-----0-----------0-----0-----------0-----0-----------0-----0---
C----0-----------0-----5-----------0-----7-----------0-----9-----------9
G-5-----------5-----7-----------7-----9-----------9-----10----------10--
C-----------------------------------------------------------------------


e-0--------0------------------------------------------------------------
C----0--------0---------------------------------------------------------
G-------0--------0------------------------------------------------------
C-----------------------------------------------------------------------
G-10----------10--------------------------------------------------------
C-----------------------------------------------------------------------


Chorus

e-----------------------------------------------------------------------
C-0--------0-----------------2--------0--------0-----------------0------
G----0--------0-----------0-----0--------0--------0--------0--------0---
C-------0--------0-----2-----------0--------0--------0--------5--------5
G/5-----------------0----------------/5---------------------------------
C-------------------------------------------------------5-----------5---


e-----------------------------------------------------------------------
C-0--------0-----------------0-----------------2--------0--------0------
G----0--------0-----------0-----0-----------0-----0--------0--------0---
C-------5--------0-----0-----------0-----2-----------0--------0--------0
G-------------------5-----------------0----------------/5---------------
C-5-----------5---------------------------------------------------------


e-----------------------------------------------------------------------
C-0--------0-----------------2--------0--------0-----------------0------
G----0--------0-----------0-----0--------0--------0-----------0-----0---
C-------0--------0-----2-----------0--------0--------0-----5-----------5
G-5-----------------0----------------/5---------------------------------
C-------------------------------------------------------5-----------5---


e-----------------------------------------------------------------------
C-0--------0-----------------2--------0--------0-----------------2------
G----0--------0-----------0-----0--------0--------0-----------0-----0---
C-------5--------0-----2-----------0--------0--------0-----2-----------0
G-------------------0----------------/5-----------------0---------------
C-5-----------5---------------------------------------------------------





DOWNLOAD THIS TAB IN GUITAR PRO



  • click 'Free Download'
  • add your e-mail address
  • you will get an e-mail with your download links (in a few seconds)
  • download the Guitar Pro 6 tab + GP5 + PDF for free
  • and that's all ...


Guitar Pro: a complete workshop for guitarists at an affordable price