20160416

SPANISH EYES TAB (INSTRUMENTAL GUITAR COVER BY STRATPETER)


Stratpeter plays a very nice instrumental guitar cover of Spanish Eyes.
See the TAB under the video.



STRATPETER SPANISH EYES TAB

PDF >>

Part 1

        D7
e-----------------------------------------------------------------------
B-----------------------------------------------------------------------
G-----------------------------------------------------------------------
D-----4-4-4-4-4-4-4-4.--------------------------------------------------
A-----5-5-5-5-5-5-5-5.--------------------------------------------------
E-----------------------------------------------------------------------

   G
e-----------------------------------------------------------------------
B-----------------------------------------------------------------------
G-----------------------------------------------------------------------
D-----------------------------------------------------------------------
A---2-------2---------------2-2---3-5~----------------------------------
E-----------------------------------------------------------------------

                                    D7
e-----------------------------------------------------------------------
B-----------------------------------------------------------------------
G---------------------------2---4/5-5~----------------------------------
D---------------2---4/5-5-----------------------------------------------
A---2-2---3-5-----------------------------------------------------------
E-----------------------------------------------------------------------




e-----------------------------------------------------------------------
B-----------------------------------------------------------------------
G-----------------------------------------------------------------------
D-----------------------------------------------------------------------
A---12\--0-------0---------------0-0---2-3~-----------------------------
E-----------------------------------------------------------------------

                                    G          D7
e-----------------------------------------------------------------------
B-----------------------------------------------------------------------
G-------------------------------2---4~----------------------------------
D-------------------2---4/5-5-------------------------------------------
A---0-0---2-3---5-------------------------------------------------------
E-----------------------------------------------------------------------

   G
e-----------------------------------------------------------------------
B-----------------------------------------------------------------------
G-----------------------------------------------------------------------
D-----------------------------------------------------------------------
A---2-------2---------------2-2---3-5~----------------------------------
E-----------------------------------------------------------------------

    G               G7               C
e-----------------------------------------------------------------------
B-----------------------------------5~----------------------------------
G-----------------------------------------------------------------------
D---------------2---3/--5/--7---5---------------------------------------
A---2-2---3-5-----------------------------------------------------------
E-----------------------------------------------------------------------

        Cm                                   G    E
e-----------------------------------------------------------------------
B-------4-----4------------------4---6-4---3~---------------------------
G-----------------------------------------------------------------------
D---5-------------------------------------------------------------------
A-----------------------------------------------------------------------
E-----------------------------------------------------------------------

        Am              D7              G             D7
e-----------------------------------------------------------------------
B-----------------------------------------------------------------------
G---4---5-5---4p2---------------2---------------------------------------
D-------------------5---4-----5-----4/5-5~------------------------------
A-----------------------------------------------------------------------
E-----------------------------------------------------------------------



Part 2

    G
e-----------------------------------------------------------------------
B-----------------------------------------------------------------------
G---4-------4~--------------4-4---5-7~----------------------------------
D---5-------5~--------------5-5---7-9~----------------------------------
A-----------------------------------------------------------------------
E-----------------------------------------------------------------------

                                      D7
e-------------------------------------14~-------------------------------
B---------------5---7.--8/--10---12.--13~-------------------------------
G---4-4---5-7---5---7.--9/--11---12.--14~-------------------------------
D---5-5---7-9-----------------------------------------------------------
A-----------------------------------------------------------------------
E-----------------------------------------------------------------------


e-----------------------------------------------------------------------
B-----------------------------------------------------------------------
G---2-------2~--------------2-2.--4-5~----------------------------------
D---4-------4~--------------4-4.--5-7~----------------------------------
A-----------------------------------------------------------------------
E-----------------------------------------------------------------------

                                     G          D7
e-----------------------------------------------------------------------
B-------------------5/--7.--8/--10.--12~--------------------------------
G---2-2---4-5---7.--5/--7.--9/--11.--12~--------------------------------
D---4-4---5-7---9.------------------------------------------------------
A-----------------------------------------------------------------------
E-----------------------------------------------------------------------

    G
e-----------------------------------------------------------------------
B-----------------------------------------------------------------------
G---4-------4~--------------4-4---5-7~----------------------------------
D---5-------5~--------------5-5---7-9~----------------------------------
A-----------------------------------------------------------------------
E-----------------------------------------------------------------------

                    G7                C
e------------------------------------12~--------------------------------
B---------------5.--6/--8.--10---8---13~--------------------------------
G---4-4---5-7---5.--7/--9.--10---9--------------------------------------
D---5-5---7-9-----------------------------------------------------------
A-----------------------------------------------------------------------
E-----------------------------------------------------------------------

         Cm                                       G        E
e--------11----11~-----------------11/--13.--11---10~-------------------
B--------13----13~-----------------13/--15.--13---12~-------------------
G---12.-----------------------------------------------------------------
D-----------------------------------------------------------------------
A-----------------------------------------------------------------------
E-----------------------------------------------------------------------

         Am                   D7                 G            D7
e-----------------------------------------------------------------------
B---12/--13-13---12-10-----------------10-------------------------------
G------------------------12---11-----12-----11---12~--------------------
D-----------------------------------------------------------------------
A-----------------------------------------------------------------------
E-----------------------------------------------------------------------


Part 3

    G
e-----------------------------------------------------------------------
B-----------------------------------------------------------------------
G-----------------------------------------------------------------------
D---9-------9---------------9-9---10-12---------------------------------
A-----------------------------------------------------------------------
E-----------------------------------------------------------------------
    x       x               x x   x  x

                                   D7
e------------------------------------12-------10------------------------
B--------------------------10--12--13----13-12----12-10-12-10-----------
G---------------9--11--12------------------------------------12-11------
D--9-9---10-12----------------------------------------------------------
A-----------------------------------------------------------------------
E-----------------------------------------------------------------------
   x x   x  x   x  x   x   x   x   x x   x  x x   x  x  x  x x  x

e-----------------------------------------------------------------------
B-----------------------------------------------------------------------
G-----------------------------------------------------------------------
D-------------------------------------9-10------------------------------
A---12-------12---------------12-12-------------------------------------
E-----------------------------------------------------------------------
    x        x                x  x    x x

e-----------------------------------------------------------------------
B-------------------------------------10--------------------------------
G-----------------------9---11---12-------------------------------------
D-----------9-10---12---------------------------------------------------
A---12-12---------------------------------------------------------------
E-----------------------------------------------------------------------
    x  x    x x    x    x   x    x    x

    G
e-----10----------------------------------------------------------------
B---12-----12-----------12---10-----------------------------------------
G------------11--------9-------11-9-------------------------------------
D-----------------12----------------12----------------------------------
A-----------------------------------------------------------------------
E-----------------------------------------------------------------------
    x x    x x    x    xx    x x  x x

    G
e-----------------------------------------------------------------------
B-----------------------------------------------------------------------
G-----------------------------------------------------------------------
D---9-------9---------------9-9---10-12---------------------------------
A-----------------------------------------------------------------------
E-----------------------------------------------------------------------
    x       x               x x   x  x

    G                 G7                  C
e-----------------------------------------12----------------------------
B-----------------------------------------------------------------------
G-----------------9---10---12---14---12---------------------------------
D---9-9---10-12---------------------------------------------------------
A-----------------------------------------------------------------------
E-----------------------------------------------------------------------
    x x   x  x    x   x    x    x    x    x

         Cm                                     G      E
e--------11-----11--------------11---13-11---10-------------------------
B-----------------------------------------------------------------------
G---12------------------------------------------------------------------
D-----------------------------------------------------------------------
A-----------------------------------------------------------------------
E-----------------------------------------------------------------------
    x    x      x               x    x  x    x

         Am                   D7                  G
e-----------------------------------------------------------------------
B---12---13-13---12-10------------------10------------------------------
G------------------------12---11---11-12-----11---12--------------------
D-----------------------------------------------------------------------
A-----------------------------------------------------------------------
E-----------------------------------------------------------------------
    x    x  x    x  x    x    x    x  x x    x    x


Part 4

    Bb
e-----------------------------------------------------------------------
B-----------------------------------------------------------------------
G-----------------------------------------------------------------------
D---0-------0---------------0-0---1-3~----------------------------------
A-----------------------------------------------------------------------
E-----------------------------------------------------------------------

                                    F7
e-----------------------------------------------------------------------
B---------------------------------------8-------------------------------
G-------------------2---3/--5/--7---8-----8~----------------------------
D---0-0---1-3/--5.------------------------------------------------------
A-----------------------------------------------------------------------
E-----------------------------------------------------------------------


e-----------------------------------------------------------------------
B-----------------------------------------------------------------------
G-----------------------------------------------------------------------
D---------------------------------0-1~----------------------------------
A---3-------3~--------------3-3-----------------------------------------
E-----------------------------------------------------------------------

                                    Bb
e-----------------------------------------------------------------------
B---------------------------------------6-------------------------------
G-----------------------2---3/--5/--7-----7~----------------------------
D---------0-1---3/--5.--------------------------------------------------
A---3-3-----------------------------------------------------------------
E-----------------------------------------------------------------------


e-----------------------------------------------------------------------
B-----------------------------------------------------------------------
G-----------------------------------------------------------------------
D---0-------0---------------0-0---1-3~----------------------------------
A-----------------------------------------------------------------------
E-----------------------------------------------------------------------

                                    Eb
e-----------------------------------3~----------------------------------
B-----------------------------------------------------------------------
G-------------------2---3/--5.--3---------------------------------------
D---0-0---1-3/--5.------------------------------------------------------
A-----------------------------------------------------------------------
E-----------------------------------------------------------------------

       Ebm                                 Bb       G
e-------2-----2~---------------2---4-2---1~-----------------------------
B-----------------------------------------------------------------------
G---3-------------------------------------------------------------------
D-----------------------------------------------------------------------
A-----------------------------------------------------------------------
E-----------------------------------------------------------------------

        Cm              F               Bb               G
e-----------------------------------------------------------------------
B---3---4-4---3-1---------------1---------------------------------------
G-------------------3---2-----3-----2---3-------3--2--1--0~-------------
D-----------------------------------------------------------------------
A-----------------------------------------------------------------------
E-----------------------------------------------------------------------

    Cm              F               F#                              Bb
e---------------------------------------------------2-------4---/---6~--
B---4-4---3-1---------------1---------------2-------2-------4---/---6~--
G---------------3---2-----3-----2---3-----------------------------------
D-----------------------------------------------------------------------
A-----------------------------------------------------------------------
E-----------------------------------------------------------------------



Chords

    G     D7    C     Am    E     G7     Bb     F7    Eb   Ebm    F

e---3-----2-----3-----0-----0-----3------6------x-----------6-----1-----
B---3-----1-----5-----1-----0-----6------6------6-----8-----7-----1-----
G---4-----2-----5-----2-----1-----4------7------8-----8-----8-----2-----
D---5-----0-----5-----2-----2-----3------8------7-----8-----8-----3-----
A---5-----0-----3-----0-----2-----5------8------8-----6-----6-----3-----
E---3-----------------------0-----3------6------x-----------------1-----


    Cm     F#

e---3------2------------------------------------------------------------
B---4------2------------------------------------------------------------
G---5------3------------------------------------------------------------
D---5------4------------------------------------------------------------
A---3------4------------------------------------------------------------
E----------2------------------------------------------------------------