20160514

BLUE ENCOUNT DAY X DAY TAB (GUITAR COVER BY ORBIT 1024)

Blue Encount - Day x Day - lead guitar cover.
Played by "orbit1024al" on YouTube.
Attention!!! Half-Step Up tuning, see the TAB under the video.



BLUE ENCOUNT DAY X DAY TAB

GP5 + GP6 + PDF >>

Intro

F-----------------------------------------------------------------------
C-----------------------8-8-8-101010.-----------------------------------
Ab----------------------------------------------------------------------
Eb----------------------5-5-5-7-7-7.------------------------------------
Bb----------------------------------------------------------------------
F-----------------------------------------------------------------------


F---12----\----------12-\-----------------------------------------------
C-----------8-/-10-/------8-/-13-/-13-12-x------------------------------
Ab--9-----\----------9--\-----------------------------------------------
Eb----------5-/-7--/------5-/-7--/-10-9--x------------------------------
Bb----------------------------------------------------------------------
F-----------------------------------------------------------------------


F---12----\----------20\19-19\17-17\15-15-15-x--------------------------
C-----------8-/-10-/----------------------------------------------------
Ab--9-----\----------17\16-16\14-14\12-12-12-x--------------------------
Eb----------5-/-7--/----------------------------------------------------
Bb----------------------------------------------------------------------
F-----------------------------------------------------------------------




F---12----\----------12-\-----------------------------------------------
C-----------8-/-10-/------8-/-13-/-13-12-x------------------------------
Ab--9-----\----------9--\-----------------------------------------------
Eb----------5-/-7--/------5-/-7--/-10-9--x------------------------------
Bb----------------------------------------------------------------------
F-----------------------------------------------------------------------


F---20---20-20-19-19-19-19-17-17-17-17-15-15-15-x-x---------------------
C-----------------------------------------------------------------------
Ab--17---17-17-16-16-16-16-14-14-14-14-12-12-12-x-x---------------------
Eb----------------------------------------------------------------------
Bb----------------------------------------------------------------------
F-----------------------------------------------------------------------


Verse

F-----------------------------------------------------------------------
C----13-----------------------------------------------------------------
Ab----------------------------------------------------------------------
Eb---10-----------------------------------------------------------------
Bb----------------------------------------------------------------------
F-----------------------------------------------------------------------


F-----------------------------------------------------------------------
C-----------------------------------------------------------------------
Ab----------------------------------------------------------------------
Eb----------------------------------------------------------------------
Bb----------------------------------------------------------------------
F-----------------------------------------------------------------------

        T      T      T      T      T
F---3h5-12p3h5-15p3h5-17p3h5-15p3h5-12p3h5------------------------------
C-----------------------------------------------------------------------
Ab----------------------------------------------------------------------
Eb----------------------------------------------------------------------
Bb----------------------------------------------------------------------
F-----------------------------------------------------------------------

    T      T      T      T
F---15p3h5-17p3h5-15p3h5-12/13\12p3h5-----------------------------------
C-----------------------------------------------------------------------
Ab----------------------------------------------------------------------
Eb----------------------------------------------------------------------
Bb----------------------------------------------------------------------
F-----------------------------------------------------------------------

        T      T      T      T      T      T      T
F---3h5-12p3h5-15p3h5-17p3h5-15p3h5-12p3h5-15p3h5-17p3h5----------------
C-----------------------------------------------------------------------
Ab----------------------------------------------------------------------
Eb----------------------------------------------------------------------
Bb----------------------------------------------------------------------
F-----------------------------------------------------------------------


F---12-12-5p3-5-5p3-----------------------------------------------------
C-----------------------------------------------------------------------
Ab----------------------------------------------------------------------
Eb----------------------------------------------------------------------
Bb----------------------------------------------------------------------
F-----------------------------------------------------------------------


Pre-Chorus

F-----------------------------------------------------------------------
C-----------------------------------------------------------------------
Ab-9-9.----1010.---12-12.----14-14.----9-9.----1010.---12-12.----14-14.-
Eb----------------------------------------------------------------------
Bb-7-7.----8-8.----10-10.----12-12.----7-7.----8-8.----10-10.----12-12.-
F-----------------------------------------------------------------------


F------------12---------------------------------------------------------
C-----------------------------------------------------------------------
Ab--14-12-14----14-12---14.--14.--14-14-12------------------------------
Eb-----------------------------------------14-12------------------------
Bb----------------------------------------------------------------------
F-----------------------------------------------------------------------


F-----------------------------------------------------------------------
C----10\-8-/-13-13-13-13-13-13-13-13------------------------------------
Ab----------------------------------------------------------------------
Eb---7-\-5-/-10-10-10-10-10-10-10-10------------------------------------
Bb----------------------------------------------------------------------
F-----------------------------------------------------------------------

F-----------------------------------------------------------------------
C---13-13-x-13-13---x-13-13---x-13-13-13-13-15-15.----------------------
Ab----------------------------------------------------------------------
Eb--10-10-x-10-10---x-10-10---x-10-10-10-10-12-12.----------------------
Bb----------------------------------------------------------------------
F-----------------------------------------------------------------------


Chorus

F---13/16-16-16-13-13-13-13-16-\-13-/-16-/-20-\-------------------------
C-----------------------------------------------------------------------
Ab--10/13-13-13-10-10-10-10-13-\-10-/-13-/-17-\-------------------------
Eb----------------------------------------------------------------------
Bb----------------------------------------------------------------------
F-----------------------------------------------------------------------


F-----------------------------------------------------------------------
C-----------------------------------------------------------------------
Ab--8---8-8-8-8-8-8-8-8-8-8-10-\-6--------------------------------------
Eb----------------------------------------------------------------------
Bb--6---6-6-6-6-6-6-6-6-6-6-8--\-4--------------------------------------
F-----------------------------------------------------------------------




DOWNLOAD THE COMPLETE TAB HERE





  • click 'Buy Now' and send $6  (or 'Add to Cart' if you want to buy more tabs)
  • add your e-mail address
  • you will get a confirmation e-mail with your download links (in a few seconds)
  • download the full Guitar Pro 6 tab + GP5 + PDF
  • then start to learn the full song - that's all ...

IF YOU DIDN'T GET YOUR DOWNLOAD LINK, PLEASE CONTACT US HERE >>

SEND YOUR GUITAR TAB REQUEST HERE >>
MORE ON GUITAR TABS A-Z >>

Guitar Pro: a complete workshop for guitarists at an affordable price