20160507

JULIE BERGAN RUDE TAB (ACOUSTIC COVER OF THE MAGIC! SONG)

Julie Bergan sings Rude by MAGIC!
Great acoustic cover with just 1 guitar and her brilliant voice.
See the TAB under the video.



JULIE BERGAN RUDE TAB (ACOUSTIC)

GP5 + GP6 + PDF >>

Intro

e-----------------------------------------------------------------------
B---------0---------------0---------------0-----------------------------
G-------6-----6---------8-----8---------9-----9-----9/11.---13.---4-----
D-----2-----------2---4-----------4---6-----------6---------------------
A---0-------------------------------------------------------------------
E-------------------7---------------9---------------9/11.---12.---4-----


e-------------------------------------------------0---------------------
B---------0---------------0-------------------0-------------------------
G-------6-----6---------8-----8-----------1-----------------------------
D-----2-----------2---4-----------4-----4-------------------------------
A---0---------------------------------2---------------------------------
E-------------------7---------------0-----------------------------------


Verse

e-----------------------------------------------------------------------
B-----------------------------------------------------------------------
G---6---------------8---------------9---------------4-------------------
D---2---------------4---------------6---------------2-------------------
A---0-------------------------------------------------------------------
E-------------------7---------------9---------------4-------------------



e-----------------------------------------------------------------------
B-----------------------------------------------------------------------
G---6---------------8---------------------------------------------------
D---2---------------4---------------------------------------------------
A---0-------------------------------------------------------------------
E-------------------7---------------------------------------------------




DOWNLOAD THIS TAB IN GUITAR PRO



  • click 'Free Download'
  • add your e-mail address
  • you will get an e-mail with your download links (in a few seconds)
  • download the Guitar Pro 6 tab + GP5 + PDF for free
  • and that's all ...


Guitar Pro: a complete workshop for guitarists at an affordable price