20160620

CHRIS BRANIFF NIGHT TRAIN TAB (THE YOUNG SHADDOW)


Chris Braniff plays Night Train with his Fender Stratocaster.
Very nice instrumental guitar playing.
See the TAB under the video.



CHRIS BRANIFF NIGHT TRAIN TAB


Part 1

e-----------------------------------------------------------------------
B-----------------------------------------------------------------------
G-----2-4-5---------------------------5---4-----------------------------
D---2-----------------2---3---------------------------0---2-------------
A-----------------------------------------------------------------------
E-----------------------------------------------------------------------


e-----------------------------------------------------------------------
B-----------------------------------------------------------------------
G---------2-------------------------------------------------------------
D-----2-5-----5---3---2---2-------1---2/4---2---------------------------
A---3-------------------------------------------------------------------
E-----------------------------------------------------------------------


e-----------------------------------------------------------------------
B-----------------------------------------------------------------------
G-----2-4-5---------------------------5---4-----------------------------
D---2-----------------2---3---------------------------0---2-------------
A-----------------------------------------------------------------------
E-----------------------------------------------------------------------



e-----------------------------------------------------------------------
B-----------------------------------------------------------------------
G---------2-------------------------------------------------------------
D-----2-5-----5---3---2---2-------1---2/4---2---------------------------
A---3-------------------------------------------------------------------
E-----------------------------------------------------------------------


Part 2

e---------------0---------------2---------------0-----------------------
B---------------2---------------3---------------2-----------------------
G---1---2---4---2---------------2---------------2-----------------------
D-----------------------------------------------------------------------
A-----------------------------------------------------------------------
E-----------------------------------------------------------------------


e---------------0---------------2---------------0-----------------------
B---------------2---------------3---------------2-----------------------
G---2---2---4---2---------------2---------------2-----------------------
D-----------------------------------------------------------------------
A-----------------------------------------------------------------------
E-----------------------------------------------------------------------


e---9--------------------------------7----------------------------------
B---10-----------5---7---------------8-----------3---5------------------
G---9------------6---7---------------7-----------4---5------------------
D----------------7---7---------------------------5---5------------------
A-----------------------------------------------------------------------
E-----------------------------------------------------------------------


e---5-------------------------------4---5-------------------------------
B---6---8---6-------5-----------------------------3---------------------
G---5-----------5-----------------------------------5-4-2---------------
D-----------------------------------------------------------------------
A-----------------------------------------------------------------------
E-----------------------------------------------------------------------


Part 3

e-----------8----------------------------8---7--------------------------
B-----10-12-------------------------------------------------------------
G---9------------------9---10----------------------------7---9----------
D-----------------------------------------------------------------------
A-----------------------------------------------------------------------
E-----------------------------------------------------------------------


e-----------------------------------------------------------------------
B--------8-10---8-------------------------------------------------------
G------9------------10---9---9-------8---9/11---9-----------------------
D---10------------------------------------------------------------------
A-----------------------------------------------------------------------
E-----------------------------------------------------------------------


e----12.-----------12.-12.----------------------------------------------
B--------15(17).--------------------------------------------------------
G-----------------------------------------------------------------------
D-----------------------------------------------------------------------
A-----------------------------------------------------------------------
E-----------------------------------------------------------------------


e-----------8----------------------------8---7--------------------------
B-----10-12-------------------------------------------------------------
G---9------------------9---10----------------------------7---9----------
D-----------------------------------------------------------------------
A-----------------------------------------------------------------------
E-----------------------------------------------------------------------


e-----------------------------------------------------------------------
B--------8-10---8-------------------------------------------------------
G------9------------10---9---9-------8---9/11---9-----------------------
D---10------------------------------------------------------------------
A-----------------------------------------------------------------------
E-----------------------------------------------------------------------


e-----------------------------------------------------------------------
B-----------------------------------------------------------------------
G---9h10-9--------------------------------------------------------------
D-----------11--9-11-9\--7~---------------------------------------------
A-----------------------------------------------------------------------
E-----------------------------------------------------------------------


Part 4

e-----------------------------------------------------------------------
B-----------------------------------------------------------------------
G-----2-4-5---------------------------5---4-----------------------------
D---2-----------------2---3---------------------------0---2-------------
A-----------------------------------------------------------------------
E-----------------------------------------------------------------------


e-----------------------------------------------------------------------
B-----------------------------------------------------------------------
G---------2-------------------------------------------------------------
D-----2-5-----5---3---2---2-------1---2/4---2---------------------------
A---3-------------------------------------------------------------------
E-----------------------------------------------------------------------


e-----------------------------------------------------------------------
B-----------------------------------------------------------------------
G-----2-4-5---------------------------5---4-----------------------------
D---2-----------------2---3---------------------------0---2-------------
A-----------------------------------------------------------------------
E-----------------------------------------------------------------------


e-----------------------------------------------------------------------
B-----------------------------------------------------------------------
G---------2-------------------------------------------------------------
D-----2-5-----5---3---2---2-------1---2/4---2---------------------------
A---3-------------------------------------------------------------------
E-----------------------------------------------------------------------


e-----------8----------------------------8---7--------------------------
B-----10-12-------------------------------------------------------------
G---9------------------9---10----------------------------7---9----------
D-----------------------------------------------------------------------
A-----------------------------------------------------------------------
E-----------------------------------------------------------------------


e---5h6-5---------------------------------------------------------------
B---------8-6-5---------------------------------------------------------
G---------------7-5-4---------------------------------------------------
D---------------------7-------6---7/9---7-------------------------------
A-----------------------------------------------------------------------
E-----------------------------------------------------------------------


e---5h6-5---------------------------------------------------------------
B---------8-6-5---------------------------------------------------------
G---------------7-5-4---------------------------------------------------
D---------------------7-------6---7/9---7-------------------------------
A-----------------------------------------------------------------------
E-----------------------------------------------------------------------


e---5h6-5---------------------------------------------------------------
B---------8-6-5---------------------------------------------------------
G---------------7-5-4---------------------------------------------------
D---------------------7-------6---7/9---7-------------------------------
A-----------------------------------------------------------------------
E-----------------------------------------------------------------------


e------------17.--------------------------------------------------------
B---------17------------------------------------------------------------
G---14-17---------------------------------------------------------------
D-----------------------------------------------------------------------
A-----------------------------------------------------------------------
E-----------------------------------------------------------------------