20160602

DR VIOSSY BOHEMIAN RHAPSODY FOR SOLO GUITAR TAB (QUEEN)

Dr. Viossy plays Bohemian Rhapsody for solo guitar. Brilliant fingerstyle arrangement!
It's possible to play this piece with a normal 6 string guitar as the low B string (7th string) is not being used too much. Original song by Freddie Mercury (Queen)
See the TAB under the video.


DR VIOSSY BOHEMIAN RHAPSODY FOR SOLO GUITAR TAB

PDF >>

GP6 + GP5 >>

e-----------------------------------------------------------------------
B---10.--10.--10.--10-------10---\--------------------------------------
G---11.--11.--11.--11-------11---\--------------------------------------
D---14.--14.--14.--14-------14---\--------------------------------------
A-----------------------------------------------------------------------
E-----------------------------------------------------------------------
B-----------------------------------------------------------------------


e-----------------------------------------------------------------------
B---10.--10---10.--10---10-7--------------------------------------------
G---11.--11---11.--11---11-8--------------------------------------------
D---13.--13---14.--13---11-9--------------------------------------------
A-----------------------------------------------------------------------
E-----------------------------------------------------------------------
B-----------------------------------------------------------------------


e-----------------------------------------------------------------------
B---9---9---9---9h10---9------------------------------------------------
G---9---9---9---9h11---9------------------------------------------------
D-----------------------------------------------------------------------
A-----------------------------------------------------------------------
E--------------------------<12>---<12>----------------------------------
B-----------------------------------------------------------------------



e-----------------------------------------------------------------------
B---10---10.--10.--10---7-5---------\-----------------------------------
G----9----9.--11.---9---7-6---------\-----------------------------------
D---11---11.--12.--11---9-7---------\-----------------------------------
A-----------------------------------------------------------------------
E-----------------------------------------------------------------------
B-----------------------------------------------------------------------


e---------------------------2-------------------------------------------
B---2.--2.--2.--2---------------2.--2.--2.--3.--5---------------7-------
G---2.--2.--2.--2-----2-------------0.--0.--4.--6-------6-------7-------
D---2.--2.--2.--2-------2-----------------------5-------5---------------
A-----------------------------------0.--0.--0.--0-------0---------------
E---2.--2.--2.--2---------2---------------------------------------------
B-----------------------------------------------------------------------


e---------------5.---------10.-------10---------------------------------
B-----------7-------<12>--------10--------------------------------------
G-------7-----------<12>--------11--------------------------------------
D---0---------------<12>---------0--------------------------------------
A-----------------------------------------------------------------------
E-----------------------------------------------------------------------
B-----------------------------------------------------------------------


e---------------------------7h9p7---------------------------------------
B-------7.--7.--7.--7-------------7-------5---5---5h7-5-------5---7-----
G-------7.--7.--7.--7---7-----------7-----4---4---4-------7-4-4---------
D-------7.--7.--7.--7-----7---------------6---6---6-----------6---7-----
A-----------------------------------------------------------------------
E---7-------7.--7.--7-------7---------0---------------------------------
B-----------------------------------------------------------------------


e-----------------------------------------------------------------------
B---11---11.--10------9---9.---10------11---11.--10------9---9.---10--\-
G---10---10.---9------8---8.----9------10---10.---9------8---8.----9--\-
D-------------11---------------11----------------11---------------11--\-
A-----------------------------------------------------------------------
E-----------------------------------------------------------------------
B-----------------------------------------------------------------------


e-----------------------------------------------------------------------
B-------7.--7---7.----------10------10---10---10---10.------------------
G-------7.--7---7.--9-----------9.---8----8----8----8.------------------
D---0-------------------7-----------10---10---10---10.------------------
A------------------------------------9----------------------------------
E-------------------9---------------------------------------------------
B-----------------------------------------------------------------------


e-----------------------------------------------------------------------
B---9---\-------0-----------------<12>----------------------------------
G---9---\---1-------7--------------------<7>----------------------------
D---9---\---------------------------------------------------------------
A-----------------------------------------------------------------------
E---0-------0-------0---0---<4>-----------------------------------------
B-----------------------------------------------------------------------


e---------------------------2<14>---------------------------------------
B-----------------------2---------------5<17>---------------------------
G---1-h-2-----------2---------------------------------------------------
D---------------2-------------------------------------------------------
A-----------0-----------------------------------------------------------
E-----------------------------------------------------------------------
B-----------------------------------------------------------------------


e-------------------2<14>-----------------------------------------------
B---------------2---------------5<17>-----------------------------------
G-----------2-----------------------------------------------------------
D-------2---------------------------------------------------------------
A---0-------------------------------------------------------------------
E-----------------------------------------------------------------------
B-----------------------------------------------------------------------


e-------------------2-------------------------------4-----------2.------
B---2-----------------------5-----------2-2-------------2-----2---------
G-----------2-------------2-----2.--4---------2-----------2-------------
D-------2-------2-------2-----------------------4-----------4-----------
A---0-------------------------------------------------------------------
E-----------------------------------2-----2-------2---------------------
B-----------------------------------------------------------------------




DOWNLOAD THE COMPLETE TAB HERE





  • click 'Buy Now' and send $6  (or 'Add to Cart' if you want to buy more tabs)
  • add your e-mail address
  • you will get a confirmation e-mail with your download links (in a few seconds)
  • download the full Guitar Pro 6 tab + GP5 + PDF
  • then start to learn the full song - that's all ...

IF YOU DIDN'T GET YOUR DOWNLOAD LINK, PLEASE CONTACT US HERE >>

SEND YOUR GUITAR TAB REQUEST HERE >>
MORE ON GUITAR TABS A-Z >>

Guitar Pro: a complete workshop for guitarists at an affordable price