20160612

JESSE COOK SHAKE TAB


Jesse Cook plays his original song "Shake" Very nice flamenco guitar playing.
More guitar lines are recorded at the same time - that's why it sounds so complex.
See the TAB of the main solo parts under the video.



JESSE COOK SHAKE TAB

GP5 + GP6 + PDF >>

Intro

    Gm                               Cm
e---3--------------------------------3----------------------------------
B---3--------------------------------4----------------------------------
G---3--------------------------------5---5-5-5---5----------------------
D---5---5-5-5---5--------------------5---5-5-5---5----------------------
A---5---5-5-5---5--------------------3---3-3-3---3----------------------
E---3---3-3-3---3-------------------------------------------------------

    Gm                               A               Ab
e---3--------------------------------5---------------4------------------
B---3--------------------------------5---------------4------------------
G---3--------------------------------6---------------5------------------
D---5---5-5-5---5--------------------7---7-7-7-------6---6-6-6----------
A---5---5-5-5---5--------------------7---7-7-7-------6---6-6-6----------
E---3---3-3-3---3--------------------5---5-5-5-------4---4-4-4----------


Main Melody

e-----------------------------------------------------------------------
B-----------------------------------------------------------------------
G---------------3---3/--7---7---7p5-7---8~------\-----------------------
D-------5---5-----------------------------------------------------------
A---5-------------------------------------------------------------------
E-----------------------------------------------------------------------



e-----------------------------------------------------------------------
B-----4-4---4-4------------------------3-3---3-3------------------------
G---5-----5-----3p2-3----------------3-----3-----2p0-0h2----------------
D-----------------------------------------------------------------------
A-----------------------------------------------------------------------
E-----------------------------------------------------------------------


e-----------------------------------------------------------------------
B-----------------------------------------------------------------------
G-------5-----5---------------------------------------------------------
D---6-----6-----6-\-----------------------------------------------------
A-----------------------------------------------------------------------
E-----------------------------------------------------------------------


e-----------------------------------------------------------------------
B-----------------------------------------------------------------------
G-----------3---3/--7---7---7p5-7---8~------\---------------------------
D---5---5---------------------------------------------------------------
A-----------------------------------------------------------------------
E-----------------------------------------------------------------------


e-----------------------------------------------------------------------
B-----4-4---4-4------------------------3-3---3-3------------------------
G---5-----5-----3p2-3----------------3-----3-----2p0-0h2----------------
D-----------------------------------------------------------------------
A-----------------------------------------------------------------------
E-----------------------------------------------------------------------


e-----------------------------------------------------------------------
B-----------------------------------------------------------------------
G-------5-----5---------------------------------------------------------
D---6-----6-----6-------------------------------------------------------
A-----------------------------------------------------------------------
E-----------------------------------------------------------------------


    Gm                               Cm
e---3---3-3.-------------------------3---3-3.---------------------------
B---3---3-3.-------------------------4---4-4.---------------------------
G---3---3-3.-------------------------5---5-5.---------------------------
D---5---5-5.-------------------------5---5-5.---------------------------
A---5---5-5.-------------------------3---3-3.---------------------------
E---3---3-3.------------------------------------------------------------

    Gm                               A               Ab
e---3---3-3.-------------------------5---------------4------------------
B---3---3-3.-------------------------5---------------4------------------
G---3---3-3.-------------------------6---------------5------------------
D---5---5-5.-------------------------7---------------6------------------
A---5---5-5.-------------------------7---------------6------------------
E---3---3-3.-------------------------5---------------4------------------


e-----------------------------------------------------------------------
B-----------------------------------------------------------------------
G-----------3---3/--7---7---7p5-7---8~------\---------------------------
D---5---5---------------------------------------------------------------
A-----------------------------------------------------------------------
E-----------------------------------------------------------------------


e-----------------------------------------------------------------------
B-----4-4---4-4------------------------3-3---3-3------------------------
G---5-----5-----3p2-3----------------3-----3-----2p0-2------------------
D-----------------------------------------------------------------------
A-----------------------------------------------------------------------
E-----------------------------------------------------------------------


e-----------------------------------------------------------------------
B-----------------------------------------------------------------------
G-----5-----5-----------------------------------------------------------
D---6-----6-----6-\-----------------------------------------------------
A-----------------------------------------------------------------------
E-----------------------------------------------------------------------


e-----------------------------------------------------------------------
B-----------------------------------------------------------------------
G-----------3---3/--7---7---7p5-7---8~------\---------------------------
D---5---5---------------------------------------------------------------
A-----------------------------------------------------------------------
E-----------------------------------------------------------------------


e-----------------------------------------------------------------------
B---8~---8p6-6\4-4\3~---------------------------------------------------
G-----------------------------------------------------------------------
D-----------------------------------------------------------------------
A-----------------------------------------------------------------------
E-----------------------------------------------------------------------


e---5-------5h6---5h6-6h8-8/10-10/11-11~---11~---10~---\----------------
B----8-6-6-8----8-------------------------------------------------------
G-------8---------------------------------------------------------------
D-----------------------------------------------------------------------
A-----------------------------------------------------------------------
E-----------------------------------------------------------------------


Chorus

e-----------------------------------------------------------------------
B-----------------------------------------4-----4-----4-----------------
G---------3-----3-----3---5/--7---------5-----5-----5-----7\--5---------
D-------5-----5-----5---------------------------------------------------
A-----------------------------------------------------------------------
E-----------------------------------------------------------------------


e-----------------------------------------------------------------------
B-----------------------------------------------------------------------
G---------3-----3-----3---5/--7-----------6---------------5-------------
D-------5-----5-----5-------------------7-----7---6-----6-----6---------
A-----------------------------------------------------------------------
E-----------------------------------------------------------------------


e-----------------------------------------------------------------------
B-----------------------------------------4-----4-----4-----------------
G---------3-----3-----3---5/--7---------5-----5-----5-----7\--5---------
D-------5-----5-----5---------------------------------------------------
A-----------------------------------------------------------------------
E-----------------------------------------------------------------------


e-----------------------------------------------------------------------
B-----------------------------------------------------------------------
G---------3-----3-----3---5/--7-----------6---------5-----5-------------
D-------5-----5-----5-------------------7-----7---6-----6-----6---------
A-----------------------------------------------------------------------
E-----------------------------------------------------------------------


e-----------------------------------------------------------------------
B-----------------------------------------------------------------------
G-----------------------------------------------------------------------
D---5---5---------------------------------------------------------------
A-----------------------------------------------------------------------
E-----------------------------------------------------------------------


Solo

e------------3-p2.------------------------------------------------------
B---6-4-3-3-4--------4.-------------------------------------------------
G--------5--------------------------------------------------------------
D-----------------------------------------------------------------------
A-----------------------------------------------------------------------
E-----------------------------------------------------------------------


e---6-----------6\5-8-6.--8-10/11-11-11~---11~---11~---10~---10~----\---
B----10-8-7-8-10--------------------------------------------------------
G-----------------------------------------------------------------------
D-----------------------------------------------------------------------
A-----------------------------------------------------------------------
E-----------------------------------------------------------------------


e-----3---3---3---3---3---3---3-----------------------------------------
B----3---3---3---3---3---3---3------------------------------------------
G---5---3---5---3---5---7---5-------------------------------------------
D-------------------------------5---5-----------------------------------
A-----------------------------------------------------------------------
E-----------------------------------------------------------------------


e---11-10-8-------------------------------------------------------------
B----------11-10-8-11-10-8----------------------------------------------
G-------------------------10-8-7-10-8-7---------------------------------
D--------------------------------------10-8-7-10-8-7--------------------
A---------------------------------------------------10-8-10-10~---10~---
E-----------------------------------------------------------------------


e-----3---3---3---3---3---3---3---3---x---x-----------------------------
B----3---3---3---3---3---3---3---3---x---x------------------------------
G---5---3---5---3---5---3---7---5---7---8---10-/-12-12.--12-12~---------
D-----------------------------------------------------------------------
A-----------------------------------------------------------------------
E-----------------------------------------------------------------------


e-----------------------------------------------------------------------
B-----------------------------------------------------------------------
G-----12---12-12~-------------------------------------------------------
D-----------------------------------------------------------------------
A-----------------------------------------------------------------------
E-----------------------------------------------------------------------


e---10-11-13-11-10-8-8-10-11-10-8--11-10-8------------------------------
B--------------------------------11-------11-10-8-----------------------
G------------------------------------------------10-8-7-----------------
D------------------------------------------------------10-8-7-----------
A-------------------------------------------------------------10~----\--
E-----------------------------------------------------------------------


Chorus

e-----------------------------------------------------------------------
B-----------------------------------------4-----4-----4-----------------
G---------3-----3-----3---5/--7---------5-----5-----5-----7\--5---------
D-------5-----5-----5---------------------------------------------------
A-----------------------------------------------------------------------
E-----------------------------------------------------------------------


e-----------------------------------------------------------------------
B---------------------------------------------5---------------4---------
G---------3-----3-----3---5/--7-----------6---------------5-------------
D-------5-----5-----5-------------------7---------6-----6---------------
A-----------------------------------------------------------------------
E-----------------------------------------------------------------------


e-----------------------------------------------------------------------
B-----------------------------------------4-----4-----4-----------------
G---------3-----3-----3---5/--7---------5-----5-----5-----7\--5---------
D-------5-----5-----5---------------------------------------------------
A-----------------------------------------------------------------------
E-----------------------------------------------------------------------


e-----------------------------------------------------------------------
B-----------------------------------------------------------------------
G---------3-----3-----3---5/--7-----------6---------5-----5-------------
D-------5-----5-----5-------------------7-----7---6-----6-----6---------
A-----------------------------------------------------------------------
E-----------------------------------------------------------------------


e-----------------------------------------------------------------------
B-----------------------------------------------------------------------
G-----------------------------------------------------------------------
D---5---5---------------------------------------------------------------
A-----------------------------------------------------------------------
E-----------------------------------------------------------------------



DOWNLOAD THIS TAB IN GUITAR PRO

  • click 'Free Download'
  • add your e-mail address
  • you will get an e-mail with your download links (in a few seconds)
  • download the Guitar Pro 6 tab + GP5 + PDF for free
  • and that's all ...


Guitar Pro: a complete workshop for guitarists at an affordable price