20160705

BURNS ERNST VISIONS TAB (CLIFF RICHARD INSTRUMENTAL COVER)

Burns Ernst plays Visions by Cliff Richard.
Very nice instrumental guitar cover.
See the TAB under video.



BURNS ERNST VISIONS TAB

GP5 + GP6 + PDF >>

Part 1

e-----------------------------------------------------------------------
B-----------------------------------------------------------------------
G-----------------------------------------------------------------------
D----------------------------4-------4/--7~-----------------------------
A---4--4-------4-2~--------------5--------------------------------------
E-----------------------------------------------------------------------


e-----------------------------------------------------------------------
B-----------------------------------------------------------------------
G-----------------------------------2---1-------------------------------
D---4--0--------2---------------1----------4-2--------------------------
A------------------4--------2-------------------------------------------
E-----------------------------------------------------------------------


e-----------------------------------------------------------------------
B-----------------------------------------------------------------------
G-----------------------------------------------------------------------
D---0-------------------------------------------------------------------
A-----4---4~------4-2------2h4--2-0~------------------------------------
E-----------------------------------------------------------------------



e-----------------------------------------------------------------------
B-----------------------------------------------------------------------
G-----------------------------------------------------------------------
D----------------------------4-------4/--7~-----------------------------
A---4~-------4---2~--------------5--------------------------------------
E-----------------------------------------------------------------------


e-----------------------------------------------------------------------
B-----------------------------------------------------------------------
G-------------------------------------2---1-----------------------------
D---4---0------4-2----------------1----------4-2------------------------
A--------------------4------4-2-----------------------------------------
E-----------------------------------------------------------------------


e-----------------------------------------------------------------------
B-----------------------------------------------------------------------
G-----------------------------------------------------------------------
D---0-------------------------------------------------------------------
A-----4~------4---2------2h4--2-0~--------------------------------------
E-----------------------------------------------------------------------


Part 2

e---4~----------4/--5/--7---5-------------------------------------------
B---5~----------5/--7/--9---5-------5-----------------------------------
G---------------------------------------6~------------------------------
D---------------------------------------7~------------------------------
A-----------------------------------------------------------------------
E-----------------------------------------------------------------------




DOWNLOAD THIS TAB IN GUITAR PRO



  • click 'Free Download'
  • add your e-mail address
  • you will get an e-mail with your download links (in a few seconds)
  • download the Guitar Pro 6 tab + GP5 + PDF for free
  • and that's all ...


Guitar Pro: a complete workshop for guitarists at an affordable price