20160717

ELLERT NORDMARK HOPELESSLY DEVOTED TO YOU TAB (INSTRUMENTAL GUITAR COVER)

Ellert Nordmark plays Olivia Newton John's Hopelessly Devoted To You.
Very nice instrumental guitar cover.
See the TAB under the video.



ELLERT NORDMARK HOPELESSLY DEVOTED TO YOU TAB

GP5 + GP6 + PDF >>

Part 1

e-----------------------------------------------------------------------
B---6---5-6---6/8-6---5~-------6---5-6---8-5~---------------------------
G-----------------------------------------------------------------------
D-----------------------------------------------------------------------
A-----------------------------------------------------------------------
E-----------------------------------------------------------------------


e-----------------------------------------------------------------------
B---6---5-6---6/8-6---5-6---6/8-5~--------------------------------------
G-----------------------------------------------------------------------
D-----------------------------------------------------------------------
A-----------------------------------------------------------------------
E-----------------------------------------------------------------------


Part 2

e-----------------------------------------------------------------------
B-----------------------------------------------------------------------
G----------------------------1-1-1h2------------------------------------
D-----2~---------2--2~---------------4~---------------------------------
A---4----------4--4-----------------------------------------------------
E-----------------------------------------------------------------------



e-----------------------------------------------------------------------
B-----------------------------------------------------------------------
G-----------------------------------------------------------------------
D---------------------------4/6-----------------------------------------
A---4-5-4-5~-------4-5~-----------7~------------------------------------
E-----------------------------------------------------------------------


e-----------------------------------------------------------------------
B-----------------------------------------------------------------------
G-----------------------------------------------------------------------
D-----------------------------------------2---2-------------------------
A---4~---4~---4-2-4~----------4---2---4-5---------5-4-4h5-2~------------
E-----------------------------------------------------------------------





DOWNLOAD THIS TAB IN GUITAR PRO



  • click 'Free Download'
  • add your e-mail address
  • you will get an e-mail with your download links (in a few seconds)
  • download the Guitar Pro 6 tab + GP5 + PDF for free
  • and that's all ...


Guitar Pro: a complete workshop for guitarists at an affordable price