20160730

IVO CABRERA BLANK SPACE TAB (ELECTRIC GUITAR COVER OF TAYLOR SWIFT'S SONG)

Ivo Cabrera plays Blank Space by Taylor Swift.
Great instrumental guitar cover.
See the TAB under the video.



IVO CABRERA BLANK SPACE TAB

GP5 + GP6 + PDF >>

Part 1

e-----------------------------------------------------------------------
B-----------------------------------------------------------------------
G---------10-10.--10-10.--10-10.--10~----12/14--14-14.-12.-12.-10h12----
D-----------------------------------------------------------------------
A-----------------------------------------------------------------------
E-----------------------------------------------------------------------


e-----------------------------------------------------------------------
B-----------------------------------------------------------------------
G---------10-10.--10-10.--10-10.--10~----12/14--14-14.-12.-12.-10h12----
D---12------------------------------------------------------------------
A-----------------------------------------------------------------------
E-----------------------------------------------------------------------


e-----------------------------------------------------------------------
B-----------------------10--10-------------------------10--10-----------
G------10--10~-10---------------------10--10~-10------------------------
D---8------------10-10-------------8------------10-10-------------------
A-----------------------------------------------------------------------
E-----------------------------------------------------------------------



e-----------------------------------------------------------------------
B-----------------------------------------------------------------------
G-------10--10~-10-------12/14--14-------\12------------------10\-------
D---10------------10-10-------------------------------------------------
A-----------------------------------------------------------------------
E-----------------------------------------------------------------------


e-----------------------------------------------------------------------
B-----------------------------------------------------------------------
G---------10-10.--10-10.--10-10.--10~----12/14--14-14.-12.-12.-10h12----
D-----------------------------------------------------------------------
A-----------------------------------------------------------------------
E-----------------------------------------------------------------------


e-----------------------------------------------------------------------
B-----------------------------------------------------------------------
G---------10-10.--10-10.--10-10.--10~----12/14--14-14.-12.-12.-10h12----
D---12------------------------------------------------------------------
A-----------------------------------------------------------------------
E-----------------------------------------------------------------------


e-----------------------------------------------------------------------
B-----------------------10--10-------------------------10--10-----------
G------10--10~-10---------------------10--10~-10------------------------
D---8------------10-10-------------8------------10-10-------------------
A-----------------------------------------------------------------------
E-----------------------------------------------------------------------




DOWNLOAD THE COMPLETE TAB HERE

  • click 'Free Download'
  • add your e-mail address
  • you will get an e-mail with your download links (in a few seconds)
  • download the Guitar Pro 6 tab + GP5 + PDF for free
  • and that's all ...


Guitar Pro: a complete workshop for guitarists at an affordable price