20160724

IVO CABRERA THINKING OUT LOUD TAB (INSTRUMENTAL GUITAR COVER OF ED SHEERAN'S SONG)

Ivo Cabrera plays Thinking Out Loud by Ed Sheeran.
Great instrumental guitar cover.
See the TAB under the video.



IVO CABRERA THINKING OUT LOUD TAB

GP5 + GP6 + PDF >>

e-----------------------------------------------------------------------
B-----------------------------------------------------------------------
G--------------2-2h4-2--------------------------------------------------
D------------4---------4-4---2---2---4----------------------------------
A------------------------------5-------2-5------------------------------
E-----------------------------------------------------------------------


e-----------------------------------------------------------------------
B-----------------------------------------------------------------------
G--------------2-2h4-2--------------------------------------------------
D------------4---------4-4---2------------------------------------------
A------------------------------5-5--------------------------------------
E-----------------------------------------------------------------------


e-----------------------------------------------------------------------
B-----------------------------------------------------------------------
G--------------2-2h4-2--------------------------------------------------
D------------4---------4-4---2---2---4----------------------------------
A------------------------------5-------2-5------------------------------
E-----------------------------------------------------------------------



e-----------------------------------------------------------------------
B-----------------------------------------------------------------------
G--------------2-2h4-2--------------------------------------------------
D------------4---------4-4---2------------------------------------------
A------------------------------5-5--------------------------------------
E-----------------------------------------------------------------------


e-----------------------------------------------------------------------
B-----------------------------------------------------------------------
G-----------7h9-9/11-------------------------7h9-9/11-------------------
D-------7---------------------------------------------------------------
A------------------------------12-------12------------------------------
E-----------------------------------------------------------------------


e-----------------------------------------------------------------------
B-----------------------------------------------------------------------
G---9-------9.--12p11-9\7-----------------------------------------------
D-----------------------------------------------------------------------
A-----------------------------------------------------------------------
E-----------------------------------------------------------------------


e-----------------------------------------------------------------------
B-----------------------------------------------------------------------
G-----------7h9-9/11-------------------------7h9-9/11-------------------
D-------7---------------------------------------------------------------
A------------------------------12-------12------------------------------
E-----------------------------------------------------------------------


e-----------------------------------------------------------------------
B-----------------------------------------------------------------------
G---9-------9.--12p11-9\7-----------/11---------------------------------
D-----------------------------------------------------------------------
A-----------------------------------------------------------------------
E-----------------------------------------------------------------------


e-----------------------------------------------------------------------
B-----------------------------------------------------------------------
G---9/11---9\7-7h9~-----7--\2-------------------------------------------
D-----------------------------------------------------------------------
A-----------------------------------------------------------------------
E-----------------------------------------------------------------------


e-----------------------------------------------------------------------
B-----------------------------------------------------------------------
G---11--h12---11--h12---11---9\--7---7h9~------9/11.--11----p9\7--------
D-----------------------------------------------------------------------
A-----------------------------------------------------------------------
E-----------------------------------------------------------------------


e-----------------------------------------------------------------------
B-----------------------------------------------------------------------
G---11--h12---11---9\--7---7---7---7h9~---------------------------------
D-----------------------------------------------------------------------
A-----------------------------------------------------------------------
E-----------------------------------------------------------------------




DOWNLOAD THE COMPLETE TAB HERE



  • click 'Free Download'
  • add your e-mail address
  • you will get an e-mail with your download links (in a few seconds)
  • download the Guitar Pro 6 tab + GP5 + PDF for free
  • and that's all ...


Guitar Pro: a complete workshop for guitarists at an affordable price