20160710

THE ANIMALS BOOM BOOM TAB (INTRO + VERSE)

The Animals play a great version of John Lee Hooker's  Boom Boom.
Use a CAPO on the 1st fret to get the original key of the song.
See the TAB of the intro and the verse part under the video.



THE ANIMALS BOOM BOOM TAB

PDF >>

Intro

e-----------------------------------------------------------------------
B--------3--------------------------------------------------------------
G---3/4----2--0--------------------------0--3-2--0----------------------
D---------------2--0-2-----------------2-----------2--0-2---------------
A-----------------------------------------------------------------------
E-----------------------------------------------------------------------


e-----------------------------------------------------------------------
B--------3--------------------------------------------------------------
G---3/4----2--0--------------------------0--3-2--0----------------------
D---------------2----------------------2-----------2--0-2---------------
A------------------2-0--------------------------------------------------
E-----------------------------------------------------------------------


e-----------------------------------------------------------------------
B--------3--------------------------------------------------------------
G---3/4----2--0-----4-------------------------0---0---------------------
D---------------2------------------------0--2---------2-----------------
A--------------------------------------2--------------------------------
E-----------------------------------------------------------------------




Verse
                                                                    6 x
e-----------------------------------------------------------------------
B--------3----------------------------------3---------------------------
G---3/4----2--0------------------------3/4----2--0----------------------
D---------------2--0-2-----------------------------2--0-2---------------
A-----------------------------------------------------------------------
E-----------------------------------------------------------------------