20160818

BURNS ERNST WONDERFUL TONIGHT TAB (INSTRUMENTAL GUITAR COVER)

Burst Ernst plays a nice instrumental guitar cover of Wonderful Tonight
Original tune by Eric Clapton
Download the TAB below



BURNS ERNST WONDERFUL TONIGHT TAB

GP5 + GP6 + PDF >>

Intro

e-----------------------------------------------------------------------
B------10(12)-(10)--8--10~-----------10(12)-(10)--8---------------------
G---7-----------------------------7------------------9~-----------------
D-----------------------------------------------------------------------
A-----------------------------------------------------------------------
E-----------------------------------------------------------------------


e-----------------------5-/-7-/--8-/-12-\-10~---------------------------
B------10(12)-(10)--8---7-/-8-/-10-/-13-\-12~---------------------------
G---7-------------------------------------------------------------------
D-----------------------------------------------------------------------
A-----------------------------------------------------------------------
E-----------------------------------------------------------------------


e-----------------------------------------------------------------------
B------10(12)-(10)--8--10~-----------10(12)-(10)---8--------------------
G---7-----------------------------7------------------9~-----------------
D-----------------------------------------------------------------------
A-----------------------------------------------------------------------
E-----------------------------------------------------------------------



e-----------------------5-/-7-/--8-/-12-\-10~---------------------------
B------10(12)-(10)--8---7-/-8-/-10-/-13-\-12~---------------------------
G---7-------------------------------------------------------------------
D-----------------------------------------------------------------------
A-----------------------------------------------------------------------
E-----------------------------------------------------------------------


Verse 1

e-----------------------------------------------------------------------
B-----------------------------------------------------------------------
G-----------------------------------------------------------------------
D---9---9---9h10---9--------12~-----------------------------------------
A----------------------12-----------------------------------------------
E-----------------------------------------------------------------------


e-----------------------------------------------------------------------
B-----------------------------------------------------------------------
G-----------------------------------------------------------------------
D---9-9h10-9-9~---------------------------------------------------------
A-----------------12~---12~---------------------------------------------
E-----------------------------------------------------------------------


e-----------------------------------------------------------------------
B-----------------------------------------------------------------------
G-----------------------------------------------------------------------
D---9---9---9h10---9--------12~-----------------------------------------
A----------------------12-----------------------------------------------
E-----------------------------------------------------------------------


e-----------------------------------------------------------------------
B-----------------------------------------------------------------------
G-----------------------------------------------------------------------
D---9-9h10-9-9~-------------------9-10~---------------------------------
A-----------------12~---12~----12---------------------------------------
E-----------------------------------------------------------------------


e-----------------------------------------------------------------------
B-----------------------------------------------------------------------
G----9--9--9-7-\-2~----------------4-4-4-4/7----------------------------
D---10-10-10-9-\-4~----------------5-5-5-5/9----------------------------
A--------------------------------------------10~------------------------
E-----------------------------------------------------------------------


e-----------------------------------------------------------------------
B-------------------------------------------------------3---------------
G------------9~-----------------------------------------4---------------
D---------9-10~-----------10---9---12-------------------5---------------
A---10h12--------------------------12---12---10--\--5.------------------
E-----------------------------------------------------------------------





DOWNLOAD THE COMPLETE TAB HERE



  • click 'Free Download'
  • add your e-mail address
  • you will get an e-mail with your download links (in a few seconds)
  • download the Guitar Pro 6 tab + GP5 + PDF for free
  • and that's all ...


Guitar Pro: a complete workshop for guitarists at an affordable price