20160818

BURNS ERNST WONDERFUL TONIGHT TAB (INSTRUMENTAL GUITAR COVER)

Burst Ernst plays a nice instrumental guitar cover of Wonderful Tonight.
Original tune by Eric Clapton.
See the TAB under the video.


BURNS ERNST WONDERFUL TONIGHT TAB


Intro

e-----------------------------------------------------------------------
B------10(12)-(10)--8--10~-----------10(12)-(10)--8---------------------
G---7-----------------------------7------------------9~-----------------
D-----------------------------------------------------------------------
A-----------------------------------------------------------------------
E-----------------------------------------------------------------------


e-----------------------5-/-7-/--8-/-12-\-10~---------------------------
B------10(12)-(10)--8---7-/-8-/-10-/-13-\-12~---------------------------
G---7-------------------------------------------------------------------
D-----------------------------------------------------------------------
A-----------------------------------------------------------------------
E-----------------------------------------------------------------------


e-----------------------------------------------------------------------
B------10(12)-(10)--8--10~-----------10(12)-(10)---8--------------------
G---7-----------------------------7------------------9~-----------------
D-----------------------------------------------------------------------
A-----------------------------------------------------------------------
E-----------------------------------------------------------------------



e-----------------------5-/-7-/--8-/-12-\-10~---------------------------
B------10(12)-(10)--8---7-/-8-/-10-/-13-\-12~---------------------------
G---7-------------------------------------------------------------------
D-----------------------------------------------------------------------
A-----------------------------------------------------------------------
E-----------------------------------------------------------------------


Verse 1

e-----------------------------------------------------------------------
B-----------------------------------------------------------------------
G-----------------------------------------------------------------------
D---9---9---9h10---9--------12~-----------------------------------------
A----------------------12-----------------------------------------------
E-----------------------------------------------------------------------


e-----------------------------------------------------------------------
B-----------------------------------------------------------------------
G-----------------------------------------------------------------------
D---9-9h10-9-9~---------------------------------------------------------
A-----------------12~---12~---------------------------------------------
E-----------------------------------------------------------------------


e-----------------------------------------------------------------------
B-----------------------------------------------------------------------
G-----------------------------------------------------------------------
D---9---9---9h10---9--------12~-----------------------------------------
A----------------------12-----------------------------------------------
E-----------------------------------------------------------------------


e-----------------------------------------------------------------------
B-----------------------------------------------------------------------
G-----------------------------------------------------------------------
D---9-9h10-9-9~-------------------9-10~---------------------------------
A-----------------12~---12~----12---------------------------------------
E-----------------------------------------------------------------------


e-----------------------------------------------------------------------
B-----------------------------------------------------------------------
G----9--9--9-7-\-2~----------------4-4-4-4/7----------------------------
D---10-10-10-9-\-4~----------------5-5-5-5/9----------------------------
A--------------------------------------------10~------------------------
E-----------------------------------------------------------------------


e-----------------------------------------------------------------------
B-------------------------------------------------------3---------------
G------------9~-----------------------------------------4---------------
D---------9-10~-----------10---9---12-------------------5---------------
A---10h12--------------------------12---12---10--\--5.------------------
E-----------------------------------------------------------------------


Main Solo

e-----------------------------------------------------------------------
B------10(12)-(10)--8--10~-----------10(12)-(10)--8---------------------
G---7-----------------------------7------------------9~-----------------
D-----------------------------------------------------------------------
A-----------------------------------------------------------------------
E-----------------------------------------------------------------------


e-----------------------5-/-7-/--8-/-12-\-10~---------------------------
B------10(12)-(10)--8---7-/-8-/-10-/-13-\-12~---------------------------
G---7-------------------------------------------------------------------
D-----------------------------------------------------------------------
A-----------------------------------------------------------------------
E-----------------------------------------------------------------------


Verse 2

e-----------------------------------------------------------------------
B-----------------------------------------------------------------------
G-----------------------------------------------------------------------
D---9---9---9h10---9--------12~-----------------------------------------
A----------------------12-----------------------------------------------
E-----------------------------------------------------------------------


e-----------------------------------------------------------------------
B-----------------------------------------------------------------------
G-----------------------------------------------------------------------
D---9h10-9-9~-----------------------------------------------------------
A---------------12~---12~-----------------------------------------------
E-----------------------------------------------------------------------


e-----------------------------------------------------------------------
B-----------------------------------------------------------------------
G-----------------------------------------------------------------------
D---9---9---9h10---9--------12~-----------------------------------------
A----------------------12-----------------------------------------------
E-----------------------------------------------------------------------


e-----------------------------------------------------------------------
B-----------------------------------------------------------------------
G-----------------------------------------------------------------------
D---9h10-9-9------------------9-10~-------------------------------------
A--------------12---12~----12-------------------------------------------
E-----------------------------------------------------------------------


e-----------------------------------------------------------------------
B-----------------------------------------------------------------------
G----9--9--9-7-\-2~-------2/4-5-4----4-4-4-4/7--------------------------
D---10-10-10-9-\-4~-------4/5-7-5----5-5-5-5/9--------------------------
A----------------------------------------------10~----------------------
E-----------------------------------------------------------------------


e-----------------------------------------------------------------------
B---------------------------------------------------------3-------------
G------------9~-------------------------------------------4-------------
D---------9-10~-----------10--9h10p9-12-------------------5-------------
A---10/12----------------------------12---12---10--\--5.----------------
E-----------------------------------------------------------------------


Bridge

e-----------------------------------------------------------------------
B-----------------------------------------------------------------------
G-------------9------9~----------11-------------------------------------
D---9-/-12.--10---10-------------12-12---12~----------------------------
A------------10-------------10---12-------------------------------------
E-----------------------------------------------------------------------


e-----------------------------------------------------------------------
B-----------------------------------------------------------------------
G-----------------------------------------------------------------------
D---10-10-9~---9-9-9/12-------------------------------------------------
A-----------------------10~---------------------------------------------
E-----------------------------------------------------------------------


e-----------------------------------------------------------------------
B-----------------------------------------------------------------------
G----------9~------------9------11~-------------------------------------
D---10-12-10~---10~-------------12~-------------------------------------
A---------10~--------------10---12~-------------------------------------
E-----------------------------------------------------------------------


e-----------------------------------------------------------------------
B-------------------------------------------------3---------------------
G-------------------------------------------------4---------------------
D--------9-10---9h10p9----------------9---9\7-5.--5---------------------
A---12-----------------12-10---12---------------------------------------
E-----------------------------------------------------------------------


Main solo

e-----------------------------------------------------------------------
B------10(12)-(10)--8--10~-----------10(12)-(10)--8---------------------
G---7-----------------------------7------------------9~-----------------
D-----------------------------------------------------------------------
A-----------------------------------------------------------------------
E-----------------------------------------------------------------------


e-----------------------5-/-7-/--8-/-12-\-10~---------------------------
B------10(12)-(10)--8---7-/-8-/-10-/-13-\-12~---------------------------
G---7-------------------------------------------------------------------
D-----------------------------------------------------------------------
A-----------------------------------------------------------------------
E-----------------------------------------------------------------------


e-----------------------------------------------------------------------
B------10(12)-(10)--8---10~-----------10(12)-(10)---8-------------------
G---7------------------------------7------------------9~----------------
D-----------------------------------------------------------------------
A-----------------------------------------------------------------------
E-----------------------------------------------------------------------


e-----------------------5-/-7-/--8-/-12-\-10----------------------------
B------10(12)-(10)--8---7-/-8-/-10-/-13-\-12----------------------------
G---7-------------------------------------------------------------------
D-----------------------------------------------------------------------
A-----------------------------------------------------------------------
E-----------------------------------------------------------------------


Verse 3

e-----------------------------------------------------------------------
B-----------------------------------------------------------------------
G-----------------------------------------------------------------------
D---9---9---9h10---9--------12~-----------------------------------------
A----------------------12-----------------------------------------------
E-----------------------------------------------------------------------


e-----------------------------------------------------------------------
B-----------------------------------------------------------------------
G-----------------------------------------------------------------------
D---10-10---10---9------------------------------------------------------
A-----------------10-10h12~---------------------------------------------
E-----------------------------------------------------------------------


e-----------------------------------------------------------------------
B-----------------------------------------------------------------------
G-----------------------------------------------------------------------
D---9-9-9---9h10---9--------12~-----------------------------------------
A----------------------12-----------------------------------------------
E-----------------------------------------------------------------------


e-----------------------------------------------------------------------
B-----------------------------------------------------------------------
G-----------------------------------------------------------------------
D---9h10-10---9------------------------9-10~----------------------------
A-----------------10---12~--------12------------------------------------
E-----------------------------------------------------------------------


e-----------------------------------------------------------------------
B-----------------------------------------------------------------------
G----9--9--9-7-\-2~-------2/4-5-4----4-4-4-4/7--------------------------
D---10-10-10-9-\-4~-------4/5-7-5----5-5-5-5/9--------------------------
A----------------------------------------------10~----------------------
E-----------------------------------------------------------------------


e-----------------------------------------------------------------------
B---------------------------------------------------------3~------------
G---------------------------------------------------------4~------------
D---------9-10~-----------10--9h10p9-12-------------------5~------------
A---10/12---10~----------------------12---12---10--\--5.----------------
E-----------------------------------------------------------------------


e-----------------------------------------------------------------------
B---------------------------------------------------------3-------------
G------------9~-------------------------------------------4-------------
D---------9-10~-----------10--9h10p9-12-------------------5-------------
A---10/12---10~----------------------12---12---10--\--5.----------------
E-----------------------------------------------------------------------


Main Solo

e-----------------------------------------------------------------------
B------10(12)-(10)--8--10~-----------10(12)-(10)--8---------------------
G---7-----------------------------7------------------9~-----------------
D-----------------------------------------------------------------------
A-----------------------------------------------------------------------
E-----------------------------------------------------------------------


e-----------------------5-/-7-/--8-/-12-\-10~---------------------------
B------10(12)-(10)--8---7-/-8-/-10-/-13-\-12~---------------------------
G---7-------------------------------------------------------------------
D-----------------------------------------------------------------------
A-----------------------------------------------------------------------
E-----------------------------------------------------------------------


e-----------------------------------------------------------------------
B------10(12)-(10)--8--10~-----------10(12)-(10)--8---------------------
G---7-----------------------------7------------------9~-----------------
D-----------------------------------------------------------------------
A-----------------------------------------------------------------------
E-----------------------------------------------------------------------


e-----------------------5-/-7-/--8-/-12-\--7~---------------------------
B------10(12)-(10)--8---7-/-8-/-10-/-13-\--8~---------------------------
G---7--------------------------------------7~---------------------------
D------------------------------------------9~---------------------------
A-----------------------------------------10~---------------------------
E-----------------------------------------------------------------------