20160803

EAST 17 EACH TIME TAB (MAIN GUITAR RIFF)

There is a great guitar intro in Each Time by East 17.
The same lick goes through almost the entire song.
See the TAB under the video.



EAST 17 EACH TIME TAB

PDF >>


e-----------------------------------------------------------------------
B---x--------4---------------------------4------------------------------
G---x-----4---------------------------4-----4---------------------------
D---x--4--------4-------4h6p4------4---------------4h6p4----------------
A---x--2-----------2h4/6-----6.----------------4h6------6.--------------
E-------------------------------4---------------------------------------


e-----------------------------------------------------------------------
B---------7--7--------7----------------7-----x-x-4h5-5------------------
G------6-----------6--6h8p6---------4-----4--x-x-4---4------------------
D---------------8--8-------8.----6-----------x-x-4h6-6------------------
A---6-------------------------7-----------------------------------------
E-----------------------------------------------------------------------


e-----------------------------------------------------------------------
B---x--------4---------------------------4------------------------------
G---x-----4---------------------------4-----4---------------------------
D---x--4--------4-------4h6p4------4---------------4h6p4----------------
A---x--2-----------2h4/6-----6.----------------4h6------6.--------------
E-------------------------------4---------------------------------------



e-----------------------------------------------------------------------
B---------7--7--------7----------------7-----x-x-4h5-5------------------
G------6-----------6--6h8p6---------4-----4--x-x-4---4------------------
D---------------8--8-------8.----6-----------x-x-4h6-6------------------
A---6-------------------------7-----------------------------------------
E-----------------------------------------------------------------------