20160803

SANTANA THE GAME OF LOVE FT. MICHELLE BRANCH TAB (GUITAR SOLO)

Carlos Santana and Michelle Branch play The Game of Love.
There is a great Santana guitar solo about 2:20.
See the Solo TAB under the video.



SANTANA THE GAME OF LOVE SOLO TAB

PDF >>

 ~ 2:20

e-----------------------------------------------------------------------
B------15.-------17(19)-----(19)(19)(19)(19)(19)(19)(19)(19)(19)(19)(19)
G---/16-----------------------------------------------------------------
D-----------------------------------------------------------------------
A-----------------------------------------------------------------------
E-----------------------------------------------------------------------


e-----------------------------------------------------------------------
B---(19)(19)(19)(19)(19)---17(19)-----(19)(19).--17.--15.---------------
G-----------------------------------------------------------------------
D-----------------------------------------------------------------------
A-----------------------------------------------------------------------
E-----------------------------------------------------------------------


e--------------------------------------15.--14h15~----14----------------
B---17-15~----15~--------h17.------------------------------15.----------
G-----------------------------------------------------------------------
D-----------------------------------------------------------------------
A-----------------------------------------------------------------------
E-----------------------------------------------------------------------



e-----------------------------------------------------14.---------------
B-------------------------------15-15-15~---17---17---------------------
G------------------14-16~-----------------------------------------------
D---14-12--12-14/16-----------------------------------------------------
A--------14-------------------------------------------------------------
E-----------------------------------------------------------------------


e--------17-----17-----17.--------------17p14-17p14-17-17p14-17-17p14---
B---14h15--14h15--14h15-------------------------------------------------
G-----------------------------------------------------------------------
D-----------------------------------------------------------------------
A-----------------------------------------------------------------------
E-----------------------------------------------------------------------


e---17p14-17p14-17p1417p1417p1417p1417(19)------------------------------
B-----------------------------------------------------------------------
G-----------------------------------------------------------------------
D-----------------------------------------------------------------------
A-----------------------------------------------------------------------
E-----------------------------------------------------------------------


e---17(19)---17(19)---17(19)------17(19)------17(19)--------------------
B-----------------------------------------------------------------------
G-----------------------------------------------------------------------
D-----------------------------------------------------------------------
A-----------------------------------------------------------------------
E-----------------------------------------------------------------------


e---17(19)-17(19)--------(17)p14-17.--14--14.---------------------------
B---------------------------------------17------------------------------
G-----------------------------------------------------------------------
D-----------------------------------------------------------------------
A-----------------------------------------------------------------------
E-----------------------------------------------------------------------


e---14------------------------------------------------------------------
B-----15-15-15-17--------------15.--------------------------------------
G----------------16~-----16~--------------------------------------------
D-----------------------------------------------------------------------
A-----------------------------------------------------------------------
E-----------------------------------------------------------------------


e-----------------------------------------------------------------------
B---17.--14(15)(14)-----------------------------17.---------------------
G---------------------16-14~---16-16-16~---19-19------------------------
D-----------------------------------------------------------------------
A-----------------------------------------------------------------------
E-----------------------------------------------------------------------



e--------19.-19.-21.-22.-21.-22p21p19-22p21p19-22p21p19-22p21p19--------
B---/19.----------------------------------------------------------------
G-----------------------------------------------------------------------
D-----------------------------------------------------------------------
A-----------------------------------------------------------------------
E-----------------------------------------------------------------------


e---22.-22--22(24)--19.--19~------19~-----22-19~--19~-----19~-----------
B-----------------------------------------------------------------------
G-----------------------------------------------------------------------
D-----------------------------------------------------------------------
A-----------------------------------------------------------------------
E-----------------------------------------------------------------------


e-----------------------------------------------------------------------
B---22-19---------------------------------------------------------------
G--------21(23)-21-19-21-19~--------------------------------------------
D-----------------------------------------------------------------------
A-----------------------------------------------------------------------
E-----------------------------------------------------------------------


 so please tell me why ...

e-----------------------------------------------------------------------
B------------------15~--------------------------------------------------
G----------------------------------------14h16~---p14.------------------
D-----------------------------------------------------------------------
A-----------------------------------------------------------------------
E-----------------------------------------------------------------------