20160814

THE EAGLES HOTEL CALIFORNIA TAB (INSTRUMENTAL GUITAR DUET)

Nice and easy guitar cover played by a duet from Estonia. The uploader is crea1337.
The song is Hotel California by The Eagles.
See the TAB under the video.



THE EAGLES HOTEL CALIFORNIA INSTRUMENTAL TAB

PDF >>

Intro


G1
e-----------------------------------------------------------------------
B---------------------------5--7.-7h8p7p5-5h7~--------------------------
G------4--4h6p4p3--4--6--7----------------------------------------------
D-----------------------------------------------------------------------
A-----------------------------------------------------------------------
E-----------------------------------------------------------------------

G2 (Capo on 7th)
e---2-------------------------------------------------------------------
B---0-------------------------------------------------------------------
G---0-------------------------------------------------------------------
D---2-------------------------------------------------------------------
A---2-------------------------------------------------------------------
E---0-------------------------------------------------------------------



G1
e-----------------------------------------------------------------------
B------------3--2-------------------------------------------------------
G------2--4-----------2--2h4--2-----------------------------------------
D------------------4-------------4\2-0h2~-------------------------------
A-----------------------------------------------------------------------
E-----------------------------------------------------------------------

G2 (Capo on 7th)
e---0-------------------------------------------------------------------
B---3-------------------------------------------------------------------
G---2-------------------------------------------------------------------
D---4-------------------------------------------------------------------
A---0-------------------------------------------------------------------
E-----------------------------------------------------------------------





G1
e-----------------0-----------0-----------0-----------0-----------------
B--------------0-----------0-----------0-----------0--------------------
G-----------0-----------2-----------4-----------7-----------------------
D------2-------------4-----------5-----------9--------------------------
A-----------------------------------------------------------------------
E-----------------------------------------------------------------------

G2 (Capo on 7th)
e---0-------------------------------------------------------------------
B---1-------------------------------------------------------------------
G---2-------------------------------------------------------------------
D---2-------------------------------------------------------------------
A---0-------------------------------------------------------------------
E---0-------------------------------------------------------------------



G1
e-------7-----10-----7-----10-----7-----10------------------------------
B-----8-----8------8-----8------8-----8---------------------------------
G---9-----9------9-----9------9-----9-----------------------------------
D-----------------------------------------------------------------------
A-----------------------------------------------------------------------
E-----------------------------------------------------------------------


G1
e-----7--10--7--10--7--10--7--10--7--10--7--10--7--10--7--10------------
B----8--8---8--8---8--8---8--8---8--8---8--8---8--8---8--8--------------
G---9--9---9--9---9--9---9--9---9--9---9--9---9--9---9--9---------------
D-----------------------------------------------------------------------
A-----------------------------------------------------------------------
E-----------------------------------------------------------------------



G1
e-------7-6-7-9-9/10-9-10-12-12/14~-------------------------------------
B-----8-----------------------------------------------------------------
G---9-------------------------------------------------------------------
D-----------------------------------------------------------------------
A-----------------------------------------------------------------------
E-----------------------------------------------------------------------

G2 (Capo on 7th)
e-----------------------2-----------------------------------------------
B---------------------0-0-----------------------------------------------
G-------------------2---2-----------------------------------------------
D-----------------1-----1-----------------------------------------------
A---------------2-------2-----------------------------------------------
E-----------------------------------------------------------------------


Break


G1
e--------2h3p2---2-2.-----2---------------------------------------------
B--------------5-------5-----3--5p3----0--------------------------------
G------4----------------------------4---2/4~----------------------------
D-----------------------------------------------------------------------
A-----------------------------------------------------------------------
E-----------------------------------------------------------------------

G2 (Capo on 7th)
e---2-------------------------------------------------------------------
B---0-------------------------------------------------------------------
G---0-------------------------------------------------------------------
D---2-------------------------------------------------------------------
A---2-------------------------------------------------------------------
E---0-------------------------------------------------------------------



G1
e----------------------------------------------7~----9-10-9--10-12--\---
B--------3p2---2.-2.----------------8.-7-8h9h10-------------------------
G------2-----4-------2--/4-4.-6-7-9-------------------------------------
D-----------------------------------------------------------------------
A-----------------------------------------------------------------------
E-----------------------------------------------------------------------

G2 (Capo on 7th)
e---0-------------------------------------------------------------------
B---3-------------------------------------------------------------------
G---2-------------------------------------------------------------------
D---4-------------------------------------------------------------------
A---0-------------------------------------------------------------------
E-----------------------------------------------------------------------



G1
e-----------0---------0---------0----------0-7.----10.--12.--10--7~-----
B----------0---------0---------0---------0-------0----------------------
G---------0---------2---------4--------7--------------------------------
D------2---------4---------5---------9----------------------------------
A-----------------------------------------------------------------------
E-----------------------------------------------------------------------

G2 (Capo on 7th)
e---0--------------------------------------------------------------------
B---1--------------------------------------------------------------------
G---2--------------------------------------------------------------------
D---2--------------------------------------------------------------------
A---0--------------------------------------------------------------------
E---0--------------------------------------------------------------------



G1
e-----9--9h10p9\7--7h9p7\6----------------------------------------------
B---------------------------8~--7--7-7--7h8p7--7h8p7--7.----------------
G---------------------------------------------------9-----7.--6---------
D---------------------------------------------------------------9-8~----
A-----------------------------------------------------------------------
E-----------------------------------------------------------------------

G2 (Capo on 7th)
e---2-------------------------------------------------------------------
B---0-------------------------------------------------------------------
G---2-------------------------------------------------------------------
D---1-------------------------------------------------------------------
A---2-------------------------------------------------------------------
E-----------------------------------------------------------------------