20160912

HANSEL PETHIG MAD WORLD TAB (FINGERSTYLE GUITAR COVER OF GARY JULES'S SONG)

Brilliant fingerstyle guitar cover of Mad World (Gary Jules) played by Hansel Pethig.
Dropped D tuning with CAPO on the 8th fret.
Download the Guitar Pro Tab below.



HANSEL PETHIG MAD WORLD TAB

GP5 + GP6 + PDF >>

Part 1

e------0----------------------------------------------------------------
B---1-----0--1-----0-----------------------------1----------------------
G---------------2-----0-------------------------------------------------
D---------2-----------2--4-----------2-----0----------------------------
A---0-----------0-----------------0-----------0-------------------------
D---------------------------0-----------0-------------------------------


e------0----------------------------------------------------------------
B---------0--1-----0--1--3----------------------------------------------
G---------------2--------0-----------0----------------------------------
D---------2-----------2-----------2-----4--2--0-------------------------
A---0-----------0--------------0-----------------3----------------------
D---------------------------0-------------------------------------------


e------0----------------------------------------------------------------
B---1-----0--1-----0-----------------------------1----------------------
G---------------2-----0-------------------------------------------------
D---------2-----------2--4-----------2-----0----------------------------
A---0-----------0-----------------0-----------0-------------------------
D---------------------------0-----------0-------------------------------




e------0----------------------------------------------------------------
B---------0--1-----0--1--3----------------------------------------------
G---------------2--------0-----------0----------------------------------
D---------2-----------2-----------2-----4-------------------------------
A---0-----------0--------------0----------------------------------------
D---------------------------0-------------------------------------------


Part 2

e---------------------------0--0-----0----------------------------------
B---------------1--1--------1--1-----1-----1----------------------------
G---------2--2--------2--2-----------------0-----0----------------------
D---------2-----------2-----------2-----------2--0----------------------
A---0-----------0-----------3-----------3-------------------------------
D-----------------------------------------------------------------------


e-----------------------------------------------------------------------
B---3--3-----3-----0--------3--3-----3-----1--0-------------------------
G---0--0-----0-----0-----0--2--2-----2-----2--0--2----------------------
D---------0-----------0--0--------0-----------0--2----------------------
A-----------------------------------------------------------------------
D---5-----------5-----------0-----------0-------------------------------


e---------------------------0--0-----0----------------------------------
B---------------1--1--------1--1-----1-----1----------------------------
G---------2--2--------2--2-----------------0-----0----------------------
D---------2-----------2-----------2-----------2--0----------------------
A---0-----------0-----------3-----------3-------------------------------
D-----------------------------------------------------------------------


e-----------------------------------------------------------------------
B---3--3-----3-----0--------3--3-----3-----1--0-------------------------
G---0--0-----0-----0-----0--2--2-----2-----2--0--2----------------------
D---------0-----------0--0--------0-----------0--2----------------------
A-----------------------------------------------------------------------
D---5-----------5-----------0-----------0-------------------------------




DOWNLOAD THIS TAB IN GUITAR PRO



  • click 'Free Download'
  • add your e-mail address
  • you will get an e-mail with your download links (in a few seconds)
  • download the Guitar Pro 6 tab + GP5 + PDF for free
  • and that's all ...


Guitar Pro: a complete workshop for guitarists at an affordable price