20160906

JOE BONAMASSA SLOE GIN GUITAR SOLO TAB (COVER BY FLORIAN CASCIANO)


Florian Casciano plays a great cover of Joe Bonamassa - Sloe Gin guitar solo part.
See the TAB under the video.



JOE BONAMASSA SLOE GIN GUITAR SOLO TAB


e-----------------------------------------------------------------------
B-------------------------------3-----------3---3---3---3---3---3-------
G---2---------------------------0-----------0---0---0---0---0---0-------
D---2-------2---2---2---2---2---0-----------0---0---0---0---0---0-------
A---0-------0---0---0---0---0---x-----------x---x---x---x---x---x-------
E-------------------------------3-----------3---3---3---3---3---3-------


e-----------1p0-----------------------------3---------------------------
B---------3-----3p1---------1-p-0---------------0-0---------------------
G---2---2---------------0---------------0-------0-0-3-------5-----------
D---0---------------3-------------------------------3---3-3-5---5-5-----
A---------------------------------------------------1---1-1-3---3-3-----
E-----------------------------------3-----------------------------------


e-----------------------------------------------------------------------
B-------------------------------3---------------------------------------
G---2-------2-------2-----------0---------------------------------------
D---2---2---2---2---2---2---2---0---------------------------------------
A---0---0---0---0---0---0---0---x---------------------------------------
E-------------------------------3---------------------------------------



e-----------------------------------------------------------------------
B---13(15)-------13(15)---13(15)~---------------------------------------
G-----------------------------------------------------------------------
D-----------------------------------------------------------------------
A-----------------------------------------------------------------------
E-----------------------------------------------------------------------


e---10--13(15)-13(15)----------------(13)p10-13~------------------------
B-----10----------------------------------------------------------------
G-----------------------------------------------------------------------
D-----------------------------------------------------------------------
A-----------------------------------------------------------------------
E-----------------------------------------------------------------------


e---15(17)---(18)-15(17)-----(15)-13---------10-------------------------
B-----------------------------------15-15~-----10-13(15)~---------------
G-----------------------------------------------------------------------
D-----------------------------------------------------------------------
A-----------------------------------------------------------------------
E-----------------------------------------------------------------------


e---10------------10-13-12(13)---12~---10----12(13)(12)-10--------------
B-----13-10--10-13------------------------13---------------13-----------
G----------12-----------------------------------------------------------
D-----------------------------------------------------------------------
A-----------------------------------------------------------------------
E-----------------------------------------------------------------------


e----------13-----------------------------------------------------------
B---13(15)----13(15)~---\-----------------------------------------------
G----------------------------10-9-7/9---7~---\--------------------------
D-------------------------/7--------------------------------------------
A-----------------------------------------------------------------------
E-----------------------------------------------------------------------


e-----------------------------------------------------------------------
B---------------------------------------------------------------10------
G------------------------------------------7---9---10---10--12----10----
D----------3~---5p3-5/7---7(8)(7)-5~---5h7---7---7---/10--10--10--------
A----5-3-5--------------------------------------------------------------
E-----------------------------------------------------------------------
       x x


e------------13------------10--12--13--15~---13-15-15(17)(15)(17)-------
B---13(15)-----13(15)~-------10--10--13---------------------------------
G-----------------------------------------------------------------------
D-----------------------------------------------------------------------
A-----------------------------------------------------------------------
E-----------------------------------------------------------------------


e---15(17)(15)(17)------(17)(15)p13-------------------------------------
B----------------------------------15~-------17(18)(17)-15~-------------
G-----------------------------------------------------------------------
D-----------------------------------------------------------------------
A-----------------------------------------------------------------------
E-----------------------------------------------------------------------


e---------13-15-17---17-(18)(17)p15-17~---17-(18)(17)p15-17~------------
B---13-15---------------------------------------------------------------
G-----------------------------------------------------------------------
D-----------------------------------------------------------------------
A-----------------------------------------------------------------------
E-----------------------------------------------------------------------


e---17-(18)(17)p15-17~---17h19p17p15-17~---17-15-15-13------------------
B-----------------------------------------------------------------------
G-----------------------------------------------------------------------
D-----------------------------------------------------------------------
A-----------------------------------------------------------------------
E-----------------------------------------------------------------------


e---15(17)---(18)-15(17)-----(15)-13------10----------------------------
B-----------------------------------15~------10-13(15)~-----------------
G-----------------------------------------------------------------------
D-----------------------------------------------------------------------
A-----------------------------------------------------------------------
E-----------------------------------------------------------------------


e--10------------10-13-12-10--12-10------------10-15-12-10--------------
B----13-10--10-13-----------13-----13-10--10-13-----------13-10---------
G---------12----------------------------12---------------------12p10----
D-------------------------------------------------------------------12--
A-----------------------------------------------------------------------
E-----------------------------------------------------------------------


e-----------------------------------------------------------------------
B-----------------------------------------------------------------------
G---10h12-10~------\----10-9-7/9---7~---\-------------------------------
D--------------------/7-------------------------------------------------
A-----------------------------------------------------------------------
E-----------------------------------------------------------------------


e-----------------------------------------------------------------------
B---------------------------------------------------------------10------
G------------------------------------------7---9---10---10--12----10----
D----------3~---5p3-5/7---7(8)(7)-5~---5h7---7---7---/10--10--10--------
A----5-3-5--------------------------------------------------------------
E-----------------------------------------------------------------------
       x x


e------------13------------10--12--13--15~---13-15-15(17)(15)(17)-------
B---13(15)-----13(15)~-------10--10--13---------------------------------
G-----------------------------------------------------------------------
D-----------------------------------------------------------------------
A-----------------------------------------------------------------------
E-----------------------------------------------------------------------


e---15(17)(15)(17)------(17)(15)p13-------------------------------------
B----------------------------------15~-------17(18)(17)-15~-------------
G-----------------------------------------------------------------------
D-----------------------------------------------------------------------
A-----------------------------------------------------------------------
E-----------------------------------------------------------------------


e---------17--------------------------17--------------------------------
B---13-15----15-15-17(18)-17-15~---------15-15-17(18)-17~---------------
G-----------------------------------------------------------------------
D-----------------------------------------------------------------------
A-----------------------------------------------------------------------
E-----------------------------------------------------------------------


e-----------------------------------------------------------------------
B---15-13-15-15h17-15\13---15~---15~---15-15-15~------------------------
G-----------------------------------------------------------------------
D-----------------------------------------------------------------------
A-----------------------------------------------------------------------
E-----------------------------------------------------------------------


e---17-------17-------17-------17-------17------------------------------
B------15-15----15-15----15-15----15-15----15-15~---\-------------------
G-----------------------------------------------------------------------
D-----------------------------------------------------------------------
A-----------------------------------------------------------------------
E-----------------------------------------------------------------------


e-------20(22)----20(22)----20(22)----20(22)----20(22)----20(22)--------
B-----------------------------------------------------------------------
G-----------------------------------------------------------------------
D-----------------------------------------------------------------------
A-----------------------------------------------------------------------
E-----------------------------------------------------------------------


e---20(22)----20(22)----20(22)---(22)(20)-17-17~---15-15~---------------
B-----------------------------------------------------------------------
G-----------------------------------------------------------------------
D-----------------------------------------------------------------------
A-----------------------------------------------------------------------
E-----------------------------------------------------------------------


e---13-15-15(17)---(18)-15(17)---(15)-13-12-10-13-12-10~----------------
B-----------------------------------------------------------------------
G-----------------------------------------------------------------------
D-----------------------------------------------------------------------
A-----------------------------------------------------------------------
E-----------------------------------------------------------------------


e---10-------------------10------------10-13-12-10--12-10------------10-
B------10-13(15)~----------13-10--10-13-----------13-----13-10--10-13---
G-------------------------------12----------------------------12--------
D-----------------------------------------------------------------------
A-----------------------------------------------------------------------
E-----------------------------------------------------------------------


e---15-12-10------------------------------------------------------------
B-----------13-10-------------------------------------------------------
G----------------12-10--10h12-10~---\-----------------------------------
D---------------------12------------------------------------------------
A-----------------------------------------------------------------------
E-----------------------------------------------------------------------


e---13(15)-----(15)-(13)---(15)-(13)---(15)-(13)---(15)-(13)------------
B-----------------------------------------------------------------------
G-----------------------------------------------------------------------
D-----------------------------------------------------------------------
A-----------------------------------------------------------------------
E-----------------------------------------------------------------------


e---15(17)-----(15)p13--------------------------------------------------
B---------------------15-15~--------------------------------------------
G-----------------------------------------------------------------------
D-----------------------------------------------------------------------
A-----------------------------------------------------------------------
E-----------------------------------------------------------------------


e---------13-15-15(17)---(18)-15(17)-----(15)-13------------------------
B---13-15----------------------------------------15-15~-----------------
G-----------------------------------------------------------------------
D-----------------------------------------------------------------------
A-----------------------------------------------------------------------
E-----------------------------------------------------------------------


e---10------------------------------------------------------------------
B-----10-13(15)~-------13p10-13-13----------------13--------------------
G-------------------------------12(14)~~~---------12(14)~~~-------------
D-----------------------------------------------------------------------
A-----------------------------------------------------------------------
E-----------------------------------------------------------------------


e-----------------------------------------------------------------------
B-----------------------------------------------------------------------
G---12-12(14)(12)p10----------------------------------------------------
D-------------------12~---\---------------------------------------------
A-----------------------------------------------------------------------
E-----------------------------------------------------------------------


e-------------------------------------------3---------------------------
B---3-------3---------------1p0-----------------0-0---------------------
G---2-------2---2p0-----0-------0-------0-------0-0-3-------5-----------
D---0-------0-------3-------------------------------3---3-3-5---5-5-----
A---------------------------------------------------1---1-1-3---3-3-----
E-----------------------------------3-----------------------------------


e-----------1p0-----------------------------3---------------------------
B---------------3p1---------1p0-----------------0-0---------------------
G-------2---------------0---------0-----0-------0-0--3---3---5---5------
D---0---------------3-----------3--------------------3---3---5---5------
A--------------------------------------------------/5------/7-----------
E-----------------------------------3-----------------------------------


e-----------1p0-----------------------------3---------------------------
B---3-----------3p1---------1p0-----------------0-0---------------------
G---2---2---------------0---------0-----0-------0-0-3-------5-----------
D---0---0-----------3-----------3-------------------3---3-3-5---5-5-----
A---------------------------------------------------1---1-1-3---3-3-----
E-----------------------------------3-----------------------------------


e-----------1p0-----------------------------3---------------------------
B---3-----3-----3p1---------1p0-------------0---0-0---------5~----------
G---2---2---------------0---------0-----0---0---0-0-3-------5~----------
D---0---------------3-----------3-------------------3-------5~----------
A---------------------------------------------------1----/7-------------
E-----------------------------------3-----------------------------------