20160920

JOHN CORABI HOOLIGAN'S HOLIDAY TAB (GUITAR SOLO)


There is an awesome acoustic guitar solo in Hooligan's Holiday by John Corabi.
It starts about 2:50 in the song, played in half-step down tuning.
See the TAB under the video.



JOHN CORABI HOOLIGAN'S HOLIDAY GUITAR SOLO TAB

GP5 + GP6 + PDF >>

 ~ 2:50

eb----------------------------------------------------------------------
Bb----------------------------------------------------------------------
Gb----------------------------------------------------------------------
Db------------------3~---5(7).--5(7)(5)p3--5-3~-------------------------
Ab--------------3-5----------------------5------------------------------
Eb---1-----1-3/5--------------------------------------------------------


eb----------------------------------------------------------------------
Bb------------6~----------6-\-------------------------------------------
Gb--------5-7-5~----------5-\-------------------------------------------
Db---3-5/7--------------------------------------------------------------
Ab----------------------------------------------------------------------
Eb----------------------------------------------------------------------


eb----------------------------------------------------------------------
Bb-----13(15)-----13.-12.-11.-10--------10-11-13------------------------
Gb-------------------------------12(13)----------12(14).--10~-----------
Db----------------------------------------------------------------------
Ab----------------------------------------------------------------------
Eb----------------------------------------------------------------------



eb-----13--------------------------13----------------------15~----------
Bb--------13--------------------------15(16)(15)-13---------------------
Gb-----------12(14)(12)-10---12/14--------------------14/16-------------
Db----------------------------------------------------------------------
Ab----------------------------------------------------------------------
Eb----------------------------------------------------------------------


eb-------5.---6.---6/7~-------------------------------------------------
Bb----------------------------------------------------------------------
Gb-------5.---6.---6/7~----------------------4.---5.---0----------------
Db----------------------------------------------------------------------
Ab----------------------------------------------------------------------
Eb----------------------------------------------------------------------


eb----------------------------------------------------------------------
Bb-------3-----3-----0---3----------------------------------------------
Gb-----0-----0-----0-------0-------0------------------------------------
Db---3-----2-----0---------------0--------------------------------------
Ab---------------------3-----2h3----------------------------------------
Eb----------------------------------------------------------------------


eb-------7------------7-------7.---5.---3-------------------------------
Bb----------------------------------------------------------------------
Gb---5/7-----------5/7--------7.---5.---4-------------------------------
Db----------------------------------------------------------------------
Ab----------------------------------------------------------------------
Eb----------------------------------------------------------------------


eb----------------------------------------------------------------------
Bb-------3-----3-----0---3----------------------------------------------
Gb-----0-----0-----0-------0-------0------------------------------------
Db---3-----2-----0---------------0--------------------------------------
Ab---------------------3-----2h3----------------------------------------
Eb----------------------------------------------------------------------


eb-----------------------8(10)-----(10).-(10)-(8)-6'--------------------
Bb--------------------6.------------------------------------------------
Gb---6p5p3-5-3~----/7---------------------------------------------------
Db--------5-------------------------------------------------------------
Ab----------------------------------------------------------------------
Eb----------------------------------------------------------------------


eb----------------------------------------------------------------------
Bb-------3-----3-----0---3----------------------------------------------
Gb-----0-----0-----0-------0-------0------------------------------------
Db---3-----2-----0---------------0--------------------------------------
Ab---------------------3-----2h3----------------------------------------
Eb----------------------------------------------------------------------


eb----------------------------------------------------------------------
Bb----------------------------------------------------------------------
Gb----------------------------------------------------------------------
Db---------------5-7.-7(8)-(8)p5--7-5~----------------------------------
Ab-----------5-7----------------7---------------------------------------
Eb---3---5/7------------------------------------------------------------


eb----------------------------------------------------------------------
Bb---5(6)-----5---------------------------------------------------------
Gb------------------7-----5-----4h5-4-0---------------------------------
Db------------------------------------0---------------------------------
Ab----------------------------------------------------------------------
Eb----------------------------------------------------------------------


eb---(6)---(5)-3--------------------------------------------------------
Bb--------------6/8~-------6h8~---6-------------------------------------
Gb----------------------------------7\5-3---3-5-3-----------------------
Db----------------------------------------5-----------------------------
Ab----------------------------------------------------------------------
Eb----------------------------------------------------------------------


eb----------------------------------------------------------------------
Bb-----6p3-6p3----------------------------------------------------------
Gb--------3---3-3p0-0-3p0-0-3p0-5(7).-5.-3h5p3--3-----------------------
Db--------------------------------------------5---5~--------------------
Ab----------------------------------------------------------------------
Eb----------------------------------------------------------------------
          x   x x   x x   x x




DOWNLOAD THIS TAB IN GUITAR PRO
 
  • click 'Free Download'
  • add your e-mail address
  • you will get an e-mail with your download links (in a few seconds)
  • download the Guitar Pro 6 tab + GP5 + PDF for free
  • and that's all ...


Guitar Pro: a complete workshop for guitarists at an affordable price