20160929

JOHN MAYER SLOW DANCING IN A BURNING ROOM TAB (MAIN RIFF)

John Mayer plays the main riff of Slow Dancing In A Burning Room.
The original video title says: John Mayer Slow Dancing in a Burning Room "Two-Rock"
See the TAB under the video.


JOHN MAYER SLOW DANCING IN A BURNING ROOM TAB (MAIN RIFF)

GP5 + GP6 + PDF >>

e-----------------------------------------------------------------------
B---------------------x-------------------------------------------------
G--------9~-----------x-------8/9-----9\8~------------------------------
D---------------------x-------9/11---11\9~---11---9---------------------
A---9/11--------------x----------------------11---9---------------------
E-------------9-------------------------------------0-------------------


e-----------------------------------------------------------------------
B---5---------5.--5-----------------------------x-----------------------
G---4h6~------4.--4----------------9~-----------x-----------------------
D-----------------6-----------------------------x-----------------------
A-----------------------------9/11--------------x-----------------------
E---5-------------0-------0-------------9-------------------------------


e-----------------------------------------------------------------------
B-----------------------------------------------------------------------
G---8/9-----9\8~------------4-----4---------4---------------------------
D---9/11---11\9~---11---9---4h6---6p4---4---4---------------------------
A------------------11---9---4---------7-----7---------------------------
E-------------------------0---------------0-0---------------------------
                          x               x




e-----9-----------------------------------------------------------------
B-------------------------9.--12/14~---------12-------------------------
G----\11p9-----9----------9.-----------11/13---13\11-p9-----------------
D---------11---9h11~------9.-----------------------------------9--------
A-----------11-----------------------------------------11-9/11--11\9-p7-
E--0-----------9--------9-----------------------------------------------
   x                    x

e-----------------------------------------------------------------------
B-----------5.--5~----------------12------------------------------------
G------h6---6.--4~----------11/13---13\11~-p9---------9.----------------
D------h7---7.--6~------------------------------------x-----------------
A--------------------------------------------11-------11.---------------
E---5-----------0---------0-----------------------9---9.----------------
                          x

e-----------------------------------------------------------------------
B-----9---------9------------------------------------5.--5~-------------
G-----9h11p9----9h11p9----9---------------------h6---6.--4~-------------
D-----------11.-------11--9h11~-----------------h7---7.--6~-------------
A--------------------------------9h11p9---------------------------------
E---9----------------------------------12-\-5------------0--------------
    x

e-----------------------------------------------------------------------
B---x----------------------------------10/12.---------------------------
G---x-(12)-(11)-11-(12)(11)~--9---9~---11/13.---------------------------
D---x-------------------------------------------------------------------
A-----------------------------------------------------------------------
E---------------------------9---9---------------------------------------


e-----------------------------------------------------------------------
B------------------------5---7---7/9.--5~-------------------------------
G--------------x-----9---6---6---6-----4~-------------------------------
D---------9h11-x-/11-----7---7---7-----6~-------------------------------
A---/11--------x---------x----------------------------------------------
E----------------------0-5----------------------------------------------
                       x

e---12---------------------------------------------12~------------------
B---12h14--12.--12---------------------------------x--------------------
G---------------11h13-13\11------------------9.-------------------------
D--------------------------14-11-------------11.------------------------
A-------------------------------14-\---------x--------------------------
E------------------------------------9-------9.-------------------------


e-----------------------------------------------------------------------
B---------------------------------5.--5~-------\------------------------
G---/11-9--------------------h6---6.--4~-------\------------------------
D----------------------------h7---7.--6~-------\------------------------
A---------/9-7----------------------------------------------------------
E--------------/7-5-2-0-/5----------------------------------------------




DOWNLOAD THIS TAB IN GUITAR PRO


  • click 'Free Download'
  • add your e-mail address
  • you will get an e-mail with your download links (in a few seconds)
  • download the Guitar Pro 6 tab + GP5 + PDF for free
  • and that's all ...


Guitar Pro: a complete workshop for guitarists at an affordable price