20161025

PINK FLOYD COMFORTABLY NUMB TAB (ELECTRIC GUITAR COVER BY KFIR OCHAION)

Kfir Ochaion plays an instrumental guitar cover of Comfortably Numb by Pink Floyd.
Great lead guitar playing with a nice Stratocaster.
See the TAB under the video. (0:00 - 1:54)



KFIR OCHAION COMFORTABLY NUMB TAB

GP5 + GP6 + PDF >>

Part 1

e-----------------------------------------------------------------------
B-----------------------------------------------------------------------
G-------------------------------2---------------------------------------
D---2-2/4~--------------------------------------------------------------
A-----------------------5-2---------4~----------------------------------
E-------------------2-5-----5-2-----------------------------------------
                    x x     x x

e-----------------------------------------------------------------------
B-----------------------------------------------------------------------
G-----------------------------------------------------------------------
D-----4p2-----4-----------------------------4-4~---2/4~-----------------
A---------5-2---5~------------------2p0-2-------------------------------
E---5-------------------------------------------------------------------
    x

e-----------------------------------------------------------------------
B-----------------------------------------------------------------------
G-----------------------------------2-----------------------------------
D---2/4-4~--------4~------------------2~--------------------------------
A-----------------------------0-4-0-------------4~----------------------
E-----------------------------------------------------------------------
                              x x x 



e-----------------------------------------------------------------------
B-----------------------------------------------------------------------
G-----------------------------------------------------------------------
D-----5-5~-----5~---4h5~--------4-4~---------4~---4~---2/4~-------------
A----------------------------------------2------------------------------
E--/3-------------------------------------------------------------------


e-----------------------------------------------------------------------
B-----------------------------------------------------------------------
G-------------------------------2---------------------------------------
D---2/4-4~--------------------------2~----------------------------------
A---------------------2-5-2-----------------4~--------------------------
E---------------------------5-2-----------------------------------------
                      x     x x

e-----------------------------------------------------------------------
B-----------------------------------------------------------------------
G-----------------------------------------------------------------------
D--/5~---5-5~---4-5~-----------------------4-4~---2/4~------------------
A----------------------------------2p0-2--------------------------------
E-----------------------------------------------------------------------



Part 2

e-----------------------------------------------------------------------
B-----------------------------------------------------------------------
G------/7-7~-----7-7~-----/7-7~---7(9)---(9)---\6~----------------------
D-----------------------------------------------------------------------
A-----------------------------------------------------------------------
E-----------------------------------------------------------------------


e-----------------------------------------------------------------------
B-----------------------------------------------------------------------
G------/7-7~-----6h7~---7~---7~---7~---7(9)-(9)-\-6~--------------------
D-----------------------------------------------------------------------
A-----------------------------------------------------------------------
E-----------------------------------------------------------------------


e-----------------------------------------------------------------------
B-----------------------------------------------------------------------
G-----/5p4-5~-----4h5~---4h5~---5/7---7~-------------------\------------
D-----------------------------------------------------------------------
A-----------------------------------------------------------------------
E-----------------------------------------------------------------------


e-----------------------------------------------------------------------
B-----------------------------------------------------------------------
G---4-5~-----5~------4h5-5~---5~---5/7-7~----\4~------------------------
D-----------------------------------------------------------------------
A-----------------------------------------------------------------------
E-----------------------------------------------------------------------


e-----------------------------------------------------------------------
B-----------------------------------------------------------------------
G---/7-7~------7p6-7~-------/7~---7~-/-9-9---\6~------------------------
D-----------------------------------------------------------------------
A-----------------------------------------------------------------------
E-----------------------------------------------------------------------


e-----------------------------------------------------------------------
B-----------------------------------------------------------------------
G---6-6/7~---7-7~---7~---7~------/7~-----6-7(9)------~~~----------------
D-----------------------------------------------------------------------
A-----------------------------------------------------------------------
E-----------------------------------------------------------------------


e-----------------------------------------------------------------------
B-----------------------------------------------------------------------
G---/5~---5-5~-----4h5~-----4h5~--/7~---7~------\-/7--7--7--7~--\-------
D-----------------------------------------------------------------------
A-----------------------------------------------------------------------
E-----------------------------------------------------------------------


e-----------------------------------------------------------------------
B-----------------------------------------------------------------------
G---/7~---7~---5/7~---5~---5~-------4h5p4~---5---5(7)---5(7)------------
D-----------------------------------------------------------------------
A-----------------------------------------------------------------------
E-----------------------------------------------------------------------


e-----------------------------------------------------------------------
B-----------------------------------------------------------------------
G---7(9)~----------------------7-----7~-----\---------------------------
D-----------------------------------------------------------------------
A-----------------------------------------------------------------------
E-----------------------------------------------------------------------


e-----------------------------------------------------------------------
B-----------------------------------------------------------------------
G---/7~---7-7~--------\4--2--2--2~--------------------------------------
D-----------------------------------------------------------------------
A-----------------------------------------------------------------------
E-----------------------------------------------------------------------





DOWNLOAD THIS TAB IN GUITAR PRO



  • click 'Free Download'
  • add your e-mail address
  • you will get an e-mail with your download links (in a few seconds)
  • download the Guitar Pro 6 tab + GP5 + PDF for free
  • and that's all ...


Guitar Pro: a complete workshop for guitarists at an affordable price