20161117

SAILOR'S HORNPIPE TAB (TENOR GUITAR COVER BY DAVID HANSEN)

David Hansen plays Sailor's Hornpipe on his tenor guitar.
The tuning is GDAE (from the lower to the higher string)
See the TAB below.




SAILOR'S HORNPIPE TAB

GP5 + GP6 + PDF >>

E---3--2-3.--------------------3.--3---2--3-----------------------------
A--------------------5--3-2--5------------------------------------------
D------------5.--5.-----------------------------------------------------
G-----------------------------------------------------------------------


E---5.----------5--3-2.----------0--2-----------------------------------
A-------0---0------------5.--5------------------------------------------
D-----------------------------------------------------------------------
G-----------------------------------------------------------------------


E---3--2-0----0---------------------------------------------------------
A-----------5----5-3--2-3--2-0----0-------------------------------------
D-------------------------------5----5-4--2-----------------------------
G-----------------------------------------------------------------------


E-----------------------------------3--2--------------------------------
A-----------0----2-0--3-2-----------------------------------------------
D---0--5-4----5-------------5.--5.--------------------------------------
G-----------------------------------------------------------------------



E---3.--------------------3---3---2--3----------------------------------
A---------------5--3-2--5-----------------------------------------------
D-------5.--5.----------------------------------------------------------
G-----------------------------------------------------------------------


E---5.----------5--3-2-----------0--2-----------------------------------
A-------0---0------------5.--5------------------------------------------
D-----------------------------------------------------------------------
G-----------------------------------------------------------------------


E---3--2-0----0---------------------------------------------------------
A-----------5----5-3--2-3--2-0----0-------------------------------------
D-------------------------------5----5-4--2-----------------------------
G-----------------------------------------------------------------------


E-----------------------------------------------------------------------
A-----------0----2-0--3-2-----------5--3--------------------------------
D---0--5-4----5-------------5.--5.--------------------------------------
G-----------------------------------------------------------------------


E--------3---------3----0-----------0-----------------------------------
A---2--5----5-2--5----5-----3---3------5--------------------------------
D-----------------------------------------------------------------------
G-----------------------------------------------------------------------


E------0-5--0----0-5--0-2.----------0--2--------------------------------
A---4---------4-------------5.--5---------------------------------------
D-----------------------------------------------------------------------
G-----------------------------------------------------------------------


E---3--2-0----0---------------------------------------------------------
A-----------5----5-3--2-3--2-0----0-------------------------------------
D-------------------------------5----5-4--2-----------------------------
G-----------------------------------------------------------------------


E-----------------------------------------------------------------------
A-----------0----2-0--3-2-----------5--3--------------------------------
D---0--5-4----5-------------5.--5.--------------------------------------
G-----------------------------------------------------------------------


E--------3---------3----0-----------0-----------------------------------
A---2--5----5-2--5----5-----3---3------5--------------------------------
D-----------------------------------------------------------------------
G-----------------------------------------------------------------------


E------0-5--0----0-5--0-2.----------0--2--------------------------------
A---4---------4-------------5.--5---------------------------------------
D-----------------------------------------------------------------------
G-----------------------------------------------------------------------


E---3--2-0----0---------------------------------------------------------
A-----------5----5-3--2-3--2-0----0-------------------------------------
D-------------------------------5----5-4--2-----------------------------
G-----------------------------------------------------------------------


E-----------------------------------3--2--------------------------------
A-----------0----2-0--3-2-----------------------------------------------
D---0--5-4----5-------------5.--5.--------------------------------------
G-----------------------------------------------------------------------


E---3.--------------------3.--3---2--3----------------------------------
A---------------5--3-2--5-----------------------------------------------
D-------5.--5.----------------------------------------------------------
G-----------------------------------------------------------------------


E---5.----------5--3-2-----------0--2-----------------------------------
A-------0---0------------5.--5------------------------------------------
D-----------------------------------------------------------------------
G-----------------------------------------------------------------------


E---3--2-0----0---------------------------------------------------------
A-----------5----5-3--2-3--2-0----0-------------------------------------
D-------------------------------5----5-4--2-----------------------------
G-----------------------------------------------------------------------


E-----------------------------------3--2--------------------------------
A-----------0----2-0--3-2-----------------------------------------------
D---0--5-4----5-------------5.--5---------------------------------------
G-----------------------------------------------------------------------


E---3.--------------------3---3---2--3----------------------------------
A---------------5--3-2--5-----------------------------------------------
D-------5.--5.----------------------------------------------------------
G-----------------------------------------------------------------------


E---5.----------5--3-2-----------0--2-----------------------------------
A-------0---0------------5.--5------------------------------------------
D-----------------------------------------------------------------------
G-----------------------------------------------------------------------


E---3--2-0----0---------------------------------------------------------
A-----------5----5-3--2-3--2-0----0-------------------------------------
D-------------------------------5----5-4--2-----------------------------
G-----------------------------------------------------------------------


E-----------------------------------------------------------------------
A-----------0----2-0--3-2-----------5--3--------------------------------
D---0--5-4----5-------------5.--5.--------------------------------------
G-----------------------------------------------------------------------


E--------3---------3----0-----------0-----------------------------------
A---2--5----5-2--5----5-----3---3------5--------------------------------
D-----------------------------------------------------------------------
G-----------------------------------------------------------------------


E------0-5--0----0-5--0-2.----------0--2--------------------------------
A---4---------4-------------5.--5---------------------------------------
D-----------------------------------------------------------------------
G-----------------------------------------------------------------------


E---3--2-0----0---------------------------------------------------------
A-----------5----5-3--2-3--2-0----0-------------------------------------
D-------------------------------5----5-4--2-----------------------------
G-----------------------------------------------------------------------


E-----------------------------------------------------------------------
A-----------0----2-0--3-2-----------5--3--------------------------------
D---0--5-4----5-------------5.--5.--------------------------------------
G-----------------------------------------------------------------------


E--------3---------3----0-----------0-----------------------------------
A---2--5----5-2--5----5-----3---3------5--------------------------------
D-----------------------------------------------------------------------
G-----------------------------------------------------------------------


E------0-5--0----0-5--0-2.----------0--2--------------------------------
A---4---------4-------------5.--5---------------------------------------
D-----------------------------------------------------------------------
G-----------------------------------------------------------------------


E---3--2-0----0---------------------------------------------------------
A-----------5----5-3--2-3--2-0----0-------------------------------------
D-------------------------------5----5-4--2-----------------------------
G-----------------------------------------------------------------------


E-----------------------------------------------------------------------
A-----------------------------------------------------------------------
D---0---------0---------------------------------------------------------
G------5-4--2----2-4--5-4---0---0---------------------------------------



DOWNLOAD THIS TAB IN GUITAR PRO



  • click 'Free Download'
  • add your e-mail address
  • you will get an e-mail with your download link (in a few seconds)
  • download the Guitar Pro 6 tab + GP5 + PDF for free
  • and that's all ...


Guitar Pro: a complete workshop for guitarists at an affordable price