20161105

ZORBA THE GREEK TAB (FINGERSTYLE COVER BY CACHO TIRAO)

Zorba the Greek (Zorba el Griego) played by the great Cacho Tirao.
Awesome fingerstyle version from a live TV show.
See the TAB under the video.



CACHO TIRAO ZORBA THE GREEK TAB

GP5 + GP6 + PDF >>

Part 1

e---------5.--------------5.--------------5.--------------5.------------
B---------5.--------------5.--------------5.--------------5.------------
G---------6.--------------6.--------------6.--------------6.------------
D-----------------------------------------------------------------------
A-0.------------------------------0.------------------------------------
E-----------------0.------------------------------0.--------------------


e-----------------------------------------------------------------------
B-4/5~------5.--------------5-----4/5~------5.--------------5-----------
G-----------6.--------------6---------------6.--------------6-----------
D-----------7.--------------7---------------7.--------------7-----------
A-0.------------------------------0.------------------------------------
E-------------------0.------------------------------0.------------------


e-----------------------------------------------------------------------
B-7p5-4-4/5~------5.--------------5-----4/5~------5.---------------5.---
G-----------------6.--------------6---------------6.---------------6.---
D-----------------7.--------------7---------------7.---------------7.---
A-------0.------------------------------0.------------------------------
E-------------------------0.-------------------------------0.-----------



e-----------------------------------------------------------------------
B-2/3-------3.--------------3.--5p3-2-2h3-------3.--------------3.------
G-----------4.--------------4.------------------4.--------------4.------
D-----------4.--------------4.------------------4.--------------4.------
A-2-----------------------------------2---------------------------------
E-------------------2.----------------------------------2.--------------


e-----------------------------------------------------------------------
B-1/2~------2.----------3-2-0---2-0-------------------2-0-----0---------
G-----------2.----------------2-----------1.--------------2-1-----------
D-----------2.----------------------------0.----------------------------
A-0.--------------------------------------------------------------------
E-------------------0.------------0---------------0---------------------


e-----------------------------------------------------------------------
B-----------------------------------------------------------------------
G-2---------------------------------------------------------------------
D---------2.--------------2.--------------2.--------------2.------------
A-0-------4.--------------4.------0.------4.--------------4.------------
E-----------------0.------------------------------0.--------------------


Part 2

e-----------------------------------------------------------------------
B-4.--5.--5.--5.--5.--5.--5.--5.--5.--5.--5.--5.--5.--5.--5.--5.--------
G---------6.--------------6.--------------6.--------------6.------------
D---------7.--------------7.--------------7.--------------7.------------
A-0-------------------------------0-------------------------------------
E-----------------0-------------------------------0---------------------


e-----------------------------------------------------------------------
B-4---5.--5.--5.--5.--5.--5.--5.--5.--5.--5.--5.--5.--5.--5-7-5-4-------
G---------6.--------------6.--------------6.--------------6.------------
D---------7.--------------7.--------------7.--------------7.------------
A-0-------------------------------0-------------------------------------
E-----------------0-------------------------------0---------------------


e-----------------------------------------------------------------------
B-4---5.--5.--5.--5.--5.--5.--5.--5.--5.--5.--5.--5.--5.--5.--5.--------
G---------6.--------------6.--------------6.--------------6.------------
D---------7.--------------7.--------------7.--------------7.------------
A-0-------------------------------0-------------------------------------
E-----------------0-------------------------------0---------------------


e-----------------------------------------------------------------------
B-4---5.--5.--5.--5.--5.--5.--5.--5.--5.--5.--5.--5.--5.--5.--5.--------
G---------6.--------------6.--------------6.--------------6.------------
D---------7.--------------7.--------------7.--------------7.------------
A-0-------------------------------0-------------------------------------
E-----------------0-------------------------------0---------------------


e-----------------------------------------------------------------------
B-2---3.--3.--3.--3.--3.--3.--3.--3.--3.--3.--3.--3.--3.--3-5-3-2-------
G---------4.--------------4.--------------4.--------------4.------------
D---------4.--------------4.--------------4.--------------4.------------
A-2-------------------------------2-------------------------------------
E-----------------2-------------------------------2---------------------


e-----------------------------------------------------------------------
B-2---3---3.--3.--3.--3.--3.--3.--3.--3.--3.--3.--3.--3.--3.--3.--------
G---------4.--------------4.--------------4.--------------4.------------
D---------4.--------------4.--------------4.--------------4.------------
A-2-------------------------------2-------------------------------------
E-----------------2-------------------------------2---------------------




DOWNLOAD THIS TAB IN GUITAR PRO



  • click 'Free Download'
  • add your e-mail address
  • you will get an e-mail with your download links (in a few seconds)
  • download the Guitar Pro 6 tab + GP5 + PDF for free
  • and that's all ...


Guitar Pro: a complete workshop for guitarists at an affordable price