20161221

CELINO ROMERO LA PALOMA 2 TAB (CLASSICAL GUITAR COVER)

Celino Romero plays La Paloma 2, very nice classical guitar cover.
He is using Dropped D tuning.
Download the Guitar Pro tab below.



CELINO ROMERO LA PALOMA 2 TAB

GP5 + GP6 + PDF >>

e-----------------------------------------------------------------------
B-----------------------------------------------------------------------
G-----------------------------------------------------------------------
D------------0-----------------0-----------------0----------------------
A----------0-----0-----------0-----0-----------0-----0------------------
D--0-----------------0-----------------0--------------------------------
   x       x x   x   x       x x   x   x       x x   x


e-----------------------------------------------------------------------
B-----------------------------------------------------------------------
G-----------------------------------------------------------------------
D------------0---4-/-7~---------------------------------9~--------------
A----------0-----------------0-5.--0-------9---10-12--0-----------------
D--0-----------------0-----------------0--------------------------------
   x       x x


e-----------------------------------------------------------------------
B-----------------------------------------------------------------------
G-----------------------------------------------------------------------
D----11~---12-9-11----7---7\5--------------------------------<7>--------
A-------------------0---------------0-4.--7.-------------<7>------------
D--0-------------------------------------------<7>----------------------



e-----------------------------------------------------------------------
B--2-/-5~--------------------7----5~------------------------------------
G----------------6~-------------7-----6-/-7---9p7-6---------------------
D--------------5-----5------------------------------9-7-\-5.------------
A------0-----------------0--------0-------0-----------------------------
D-----------------------------------------------------------------------


e-----------------------------------------------------------------------
B-----------------------------------------------------------------------
G-----------------------------------------------------------------------
D--7-\-4~---------------------------------------------------------------
A----------0-5.--0------------------------------------------------------
D--0--------------------------------------------------------------------




DOWNLOAD THIS TAB IN GUITAR PRO



  • click 'Free Download'
  • add your e-mail address
  • you will get an e-mail with your download links (in a few seconds)
  • download the Guitar Pro 6 tab + GP5 + PDF for free
  • and that's all ...


Guitar Pro: a complete workshop for guitarists at an affordable price