20161225

MICHAEL BUBLÉ CHRISTMAS BABY PLEASE COME HOME TAB (GUITAR SOLO)

Michael Bublé - Christmas (Baby Please Come Home)
There is a cool guitar solo at 1:18. 
Download the GP6 GP5 and/or PDF files below.



MICHAEL BUBLÉ CHRISTMAS BABY PLEASE COME HOME TAB

GP5 + GP6 + PDF >>

(1:16 - 1:33)

e-----------------------------------------------------------------------
B-----------------------------------------------------------------------
G-----------------------------------------------------------------------
D-----------------------------------------------------------------------
A-------------------------4-------4h6---4~----\-------------------------
E-----------2---4---4/6-------6-----------------------------------------


e-----------------------------------------------------------------------
B-----------7-----------------------------------------------------------
G-----------6h8---6-----------------------------------------------------
D---------------------6h8---6-------------------------------------------
A-------------------------------8\6-4~----------------------------------
E------------------------------------------6.---------------------------


e-----------------------------------------------------------------------
B-----------------------------------------------------------------------
G---------4-------------------------------------------------------------
D---------4h6p4---4~----6.----/8.----4h6p4---4~----6--\-----------------
A---------------6--------------------------6----------------------------
E-----------------------------------------------------------------------



e-----------------------------------------------------------------------
B-------2~---------4~----------6~------7--9--\--------7---\-------------
G-----------------------------------------------------6---\-------------
D---/3--------3-4----------/6--------6-8--9--\--------8---\-------------
A-----------------------------------------------------------------------
E-----------------------------------------------------------------------



DOWNLOAD THIS SOLO TAB IN GUITAR PRO



  • click 'Free Download'
  • add your e-mail address
  • you will get an e-mail with your download links (in a few seconds)
  • download the Guitar Pro 6 tab + GP5 + PDF for free
  • and that's all ...


Guitar Pro: a complete workshop for guitarists at an affordable price