20170119

BURNS ERNST HOUSE OF THE RISING SUN TAB (INSTRUMENTAL GUITAR COVER)

Burns Ernst plays his own instrumental guitar cover of House of the Rising Sun.
Original song by The Animals.
See the TAB under the video.



BURNS ERNST HOUSE OF THE RISING SUN TAB

PDF >>

Part 1

 Am / C / D / F /
 Am / E / Am / E /

      Am          C            D         F
e-----------------------------------------------------------------------
B-----------------------------------------------------------------------
G-----------------------------------------------------------------------
D-----------------------------------------------------------------------
A-----0---------2-3---------/7-5---0-----0------------------------------
E---0-------------------------------------------------------------------

      Am          C            E
e-----------------------------------------------------------------------
B-----------------------------------------------------------------------
G-----------------------------------------------------------------------
D---7-7~--------7-5~----------------------------------------------------
A--------------------------7-5-7~---------------------------------------
E-----------------------------------------------------------------------

         Am          C             D             F
e-----------------------------------------------------------------------
B-----------------------------------------------------------------------
G-----------------------------------------------------------------------
D---/7-7-7~--------7-5-\-2~------2-0------------------------------------
A--------------------------------------0-----0-0-3~---------------------
E-----------------------------------------------------------------------


      Am          E                   Am
e-----------------------------------------------------------------------
B-----------------------------------------------------------------------
G-----------------------------------------------------------------------
D-----------------------------------------------------------------------
A---0-0---------0---------------------0---------------------------------
E-----------------3(4)---0-----3(4)-------------------------------------

 (Am) / C / D / F /
  Am / E / Am / E //


Part 2
     
      Am          C           D          F
e-----------------------------------------------------------------------
B-----------------------------------------------------------------------
G-----------------------------------------------------------------------
D---7-7~--------7-5~----------------------------------------------------
A---------------------------7-5\--0-------------------------------------
E-----------------------------------------------------------------------

    Am          C               E
e-----------------------------------------------------------------------
B------------------------ tremolo bar ----------------------------------
G-----------------------------------------------------------------------
D---7~--------7-5~------------------------------------------------------
A------------------------7-(6)-(7)~-------------------------------------
E-----------------------------------------------------------------------

       Am          C           D           F
e-----------------------------------------------------------------------
B-----------------------------------------------------------------------
G-----------------------------------------------------------------------
D---/7-7~--------7-5~---------------------------------------------------
A----------------------------7-5---0-----0-3~---------------------------
E-----------------------------------------------------------------------

      Am          E                   Am
e-----------------------------------------------------------------------
B-----------------------------------------------------------------------
G-----------------------------------------------------------------------
D-----------------------------------------------------------------------
A---0-0---------0---------------------0---------------------------------
E-----------------3(4)---0-----3(4)-------------------------------------

 (Am) / C / D / F /
  Am / E / Am / E //



Part 3

      Am          C           D           F
e---5-5~--------5-------------------------------------------------------
B---5-5~--------5-8~--------5-------------------------------------------
G-----------------------------7---------7/10~---------------------------
D---------------------------------7-----7/10~---------------------------
A-----------------------------------------------------------------------
E-----------------------------------------------------------------------

        Am          C           E
e---5-5-5~--------5-----------------------------------------------------
B---5-5-5~----------8~------5---5------5------5------5------5-----------
G-----------------------------7---7(9)---7(9)---7(9)---7(9)---7---------
D-----------------------------------------------------------------------
A-----------------------------------------------------------------------
E-----------------------------------------------------------------------

        Am          C          D           F
e---5-5-5~--------5-----------------------------------------------------
B---5-5-5~--------5-8~-------5------------------------------------------
G------------------------------7-------7-7/10~--------------------------
D----------------------------------7---7-7/10~--------------------------
A-----------------------------------------------------------------------
E-----------------------------------------------------------------------

      Am          E             Am
e-----------------------------------------------------------------------
B-----------------------------------------------------------------------
G-----------------------------------------------------------------------
D---7-7~--------7-6-------------7~--------------------------------------
A---------------------7-------------------------------------------------
E-----------------------------------------------------------------------

 (Am) / C / D / F /
  Am / E / Am / E //

Interlude

 Am / C / D / F /
 Am / C / E / E /
 Am / C / D / F /
 Am / E //

 Am / C / D / F /
 Am / E / Am / E //


Part 4
          Am         C          D          F
e-----------------------------------------------------------------------
B-----------------------------------------------------------------------
G------------------------5---/9-7---------------------------------------
D-----7---7~------------------------7~----------------------------------
A---7-------------------------------------------------------------------
E-----------------------------------------------------------------------

        Am          C           E
e---5-5-5~--------5-----------------------------------------------------
B---5-5-5~--------5-8~------5---5---~-----------------------------------
G-----------------------------7-7(9)~-----------------------------------
D-----------------------------------------------------------------------
A-----------------------------------------------------------------------
E-----------------------------------------------------------------------

    Am          C           D           F
e---5---------5---------------------------------------------------------
B---5-----------8~--------5---------------------------------------------
G---------------------------7-------------------------------------------
D-------------------------------7---7-7/10~-----------------------------
A-----------------------------------------------------------------------
E-----------------------------------------------------------------------

        Am          E             Am
e-----------------------------------------------------------------------
B-----------------------------------------------------------------------
G-----------------------------------------------------------------------
D---7-7-7~------7-7-6-----------6-7~------------------------------------
A-----------------------7-----------------------------------------------
E-----------------------------------------------------------------------

 (Am) / C / D / F /
  Am / E / Am / E //


Part 5

      Am          C            D             F
e------------------------------------------- tremolo bar ---------------
B-----------------------------------------------------------------------
G---------------4-5~------/9-9-7-------------5-(4)-(5)~-----------------
D-----7~------7--------------------7~----7-7----------------------------
A---7-------------------------------------------------------------------
E-----------------------------------------------------------------------

       Am           C            E
e-----------------------------------4-4-----4-4----4-4-----4-0----------
B---10-10~-------10-8---\---5-3-/5------/5------/5-----/5---------------
G---9--9~--------9--9---\-----------------------------------------------
D-----------------------------------------------------------------------
A-----------------------------------------------------------------------
E-----------------------------------------------------------------------

    Am            C             D                  F
e---------------7-8~---------12-10-----------------8-(7)-(8)------------
B---10~------10---10~--------13-10---10~----10-10-10-(9)-(10)-----------
G---9~-------9----------------------------------------------------------
D-----------------------------------------------------------------------
A------------------------------------------------ tremolo bar ----------
E-----------------------------------------------------------------------

        Am          E             Am
e---5-5-5~------5-5-4-----------4-5~------------------------------------
B---5-5-5~------5-5-5---5-------5-5~------------------------------------
G-----------------------------------------------------------------------
D-----------------------------------------------------------------------
A-----------------------------------------------------------------------
E-----------------------------------------------------------------------

 (Am) / C / D / F /
  Am / E / Am / E //


Part 6

      Am          C            D         F
e-----------------------------------------------------------------------
B-----------------------------------------------------------------------
G-----------------------------------------------------------------------
D-----------------------------------------------------------------------
A-----0---------2-3---------/7-5---0-----0------------------------------
E---0-------------------------------------------------------------------

      Am          C            E
e-----------------------------------------------------------------------
B-----------------------------------------------------------------------
G-----------------------------------------------------------------------
D---7-7~--------7-5~----------------------------------------------------
A--------------------------7-5-7~---------------------------------------
E-----------------------------------------------------------------------

         Am              C         D             F
e-----------------------------------------------------------------------
B-----------------------------------------------------------------------
G-----------------------------------------------------------------------
D---/7-7-7~--------7-5-\-2~------2-0------------------------------------
A--------------------------------------0-----0-0-3~---------------------
E-----------------------------------------------------------------------

      Am          E                  Am    C    D    F
e-----------------------------------------------------------------------
B-----------------------------------------------------------------------
G-----------------------------------------------------------------------
D-----------------------------------------------------------------------
A---0-0---------0--------------------0----------------------------------
E-----------------3(4)---0-----3(4)-------------------------------------

      Am          E                  Am
e-----------------------------------------------------------------------
B-----------------------------------------------------------------------
G-----------------------------------------------------------------------
D-----------------------------------------------------------------------
A---0-0---------0--------------------0----------------------------------
E-----------------3(4)---0-----3(4)-------------------------------------


 (Am) / D / Am / D /
  Am / D / Am / D /
  Am / D / Am ..... //



Chords

    Am        C         D         F         E

e---0---------0---------2---------1---------0---------------------------
B---1---------1---------3---------1---------0---------------------------
G---2---------0---------2---------2---------1---------------------------
D---2---------2---------0---------3---------2---------------------------
A---0---------3-------------------3---------2---------------------------
E---------------------------------1---------0---------------------------