20170209

SOLAS JOHNNY'S GONE FOR A SOLDIER TAB (INTRO + VERSE)


Johnny's Gone For A Soldier based on the traditional Irish song, Suil a Ruin.
This version by Solas is played in Double Dropped D tuning with Capo on the 2nd fret.
Download the Guitar Pro Tab below.



SOLAS JOHNNY'S GONE FOR A SOLDIER TAB

GP5 + GP6 + PDF >>

Intro Solo

d---5-------4--5-4-------4-4\2--0---------------------------------------
B-------------------5---------------------------------------------------
G---------------------5-----------2h4-----------------------------------
D-----------------------------------------------------------------------
A-----------------------------------------------------------------------
D-----------------------------------------------------------------------


d-----------------0h2--5-3\2--0-----0-----------------------------------
B---------------------------------5-------------------------------------
G---4\2-0---0h2h4-----------------------0-------------------------------
D-----------------------------------------------------------------------
A-----------------------------------------------------------------------
D-----------------------------------------------------------------------


d---5--4-----------------------5--4-------------------------------------
B---------5--6/7--7\5--3-------------5----------------------------------
G-------------------------3/4-------------------------------------------
D-----------------------------------------------------------------------
A-----------------------------------------------------------------------
D-----------------------------------------------------------------------



d---7/9~------7---5---4-0h2--5-3\2--0------0----------------------------
B-----------------------------------------------------------------------
G-------------------------------------3/4----4\2---0--------------------
D-----------------------------------------------------------------------
A-----------------------------------------------------------------------
D-----------------------------------------------------------------------


Verse

d--------------------------0--------------------------------------------
B-------------0-x--------5------0---x-----------------------------------
G---0---x-2-----x-----5-------0-----x-----------------------------------
D---2---x-4-----x-----5----0--------x-----------------------------------
A-------------------0---------------------------------------------------
D---2---x-0-----x---------------5---x-----------------------------------


d-----------------------------------------------------------------------
B--------0-x------5-x-------0----0-----x--------------------------------
G-----0----x--5-----x----5----2----0---x--------------------------------
D-----0----x--5-----x----5----0----0---x--------------------------------
A-------------0-----x--3------------------------------------------------
D---5------x------------------4----5---x--------------------------------


d-----------------------------------------------------------------------
B-----0---x------0-x----------0--5---x----------------------------------
G-----0---x--2-----x-------------5---x----------------------------------
D-----0---x--0-----x-------4-----5---x----------------------------------
A-----------------------2--------0---x----------------------------------
D---5-----x--4-----x--2-------------------------------------------------


d---------------------------------2---x---------------------------------
B--------5-x------0-x----------0------x---------------------------------
G-----5----x--2-----x-------5---------x---------------------------------
D-----5----x--4-----x----5------------x---------------------------------
A---0------x-----------0--------------x---------------------------------
D-------------0-----x---------------------------------------------------




DOWNLOAD THE INTRO AND VERSE IN GUITAR PRO



  • click 'Free Download'
  • add your e-mail address
  • you will get an e-mail with your download links (in a few seconds)
  • download the Guitar Pro 6 tab + GP5 + PDF for free
  • and that's all ...


Guitar Pro: a complete workshop for guitarists at an affordable price