20170329

SLASH PARADISE CITY INTRO TAB (MADE IN STOKE)


Slash plays a cool intro in the first 47 seconds. Paradise City - Made In Stoke.
Half-step down tuning - as usual.
Good luck!



SLASH PARADISE CITY INTRO TAB (MADE IN STOKE)

PDF >>

eb----------------------------------------3-----------------------------
Bb-----------1----------------------------3-------0h1p0-----------------
Gb--------------------------------0-------0-------0---------------------
Db-----0h2--------------------0h2---0-------------0---------------------
Ab---3-----3-----3------------------------------------------------------
Eb------------------------------------3---------------------------------


eb----------------------------------------------------------------------
Bb-----------------1----------1h3---1h3---1---0-------------------------
Gb----------------------------0-----0-------------------0---------------
Db-----------0h2--------------------------------------0-----------------
Ab-----2h3-------3----------------------------------2-------------------
Eb---3-----3--------------------------------------3---------------------


eb----------------------------------------------------------------------
Bb----------------------------------------------------------------------
Gb---0h2-0-----0--------------------------------------------------------
Db---------0h2---0---------------0h2------------------------------------
Ab-------------------------2h3------------------------------------------
Eb-----------------------3-----3----------------------------------------



eb----------------------------------------------------------------------
Bb----------------------------------------------------------------------
Gb-------------------------------------------0--------------------------
Db-----0h2---2-----2--2--2-0---0-------0--------------------------------
Ab---------------------------3---0h2------------------------------------
Eb---3-----3-------------------------3-----3----------------------------


eb----------------------------------------------------------------------
Bb----------------------------------------------------------------------
Gb----------------------------------------------------------------------
Db-----------0h2---2----------2h3---2-----------0-----------------------
Ab-----2h3----------------------------3---0h2-------2-------------------
Eb---3-----3-----3----------------------3-----3-------------------------


eb----------------------------------------------------------------------
Bb-------------1-----------1---1-------------------------1--------------
Gb-------0h2-------2---------2---0h2---0h2---0-------------0------------
Db-----3-----3---3-----------------------------3---0h2-------2----------
Ab---3---------------3---------------------------------3----------------
Eb----------------------------------------------------------------------


eb----------------------------------------------------------------------
Bb-----------------3---1------------------------------------------------
Gb---0h2---0------------------------------------------------------------
Db-----------0h2--------------------------------------------------------
Ab---------------3------------------------------------------------------
Eb----------------------------------------------------------------------