20170404

BIG BILL BROONZY GLORY OF LOVE TAB (INTRO)


Big Bill Broonzy - Glory Of Love guitar cover played by Eddie.
The intro part is so cool that it worth a try.
Download the Guitar Pro 6, GP5 and PDF files below.



BIG BILL BROONZY GLORY OF LOVE TAB

GP5 + GP6 + PDF >> 

Intro 

e---------0---------------------1.----1---------------------------------
B-------1-----------1-----------0.----0-----0---------------------------
G---------------------2---0-----0.----0-------2---0---------------------
D-----------------------------------------------------------------------
A---x-----3-----3-----3-----3-----x-----x-----x-----x-------------------
E---3-----x-----x-----x-----x-----3-----3-----3-----3-------------------


e---3.----3-------------------3.----1-----------------------------------
B---1.----1-------------------1.----1-----1-----------------------------
G---0.----0-----------------------------2-----2-------------------------
D-----------------------------------------------------------------------
A-----3-----3-----3-----3-----x-----x-----x-----x-----------------------
E-----x-----x-----x-----x-----1-----1-----1-----1-----------------------


e---------0.------0-----------------------------------------------------
B---1-----1.----1-----3p1---------3.----1h3-----0-----------------------
G---0-----------------------0-----0.----0-----0-------------------------
D---------------------------0-------------------------------------------
A-----3-----3-----3-----3-----x-----x-----x-----x-----------------------
E-----x-----x-----x-----x-----3-----3-----3-----3-----------------------



e---------------3-----3-----3-----3-----3-----3-------------------------
B---1-----3/5-----4/5---4/5---4/5---4/5---4/5-----1---------------------
G---0-------------------------------------------------------------------
D-----x-----------------------------------------------------------------
A-----3-----------------------------------------x-----------------------
E-----------------------------------------------3-----------------------


e---0---------------------1.----1---------------------------------------
B-------------1-----------0.----0-----0---------------------------------
G---------------2---0-----0.----0-------2---0---------------------------
D-----------------------------------------------------------------------
A---3-----3-----3-----3-----x-----x-----x-----x-------------------------
E---x-----x-----x-----x-----3-----3-----3-----3-------------------------


e---3.----3-------------------3.----1-----------------------------------
B---1.----1-----------------1-1.----1-----1-----------------------------
G---0.----0-----------------------------2-----2-------------------------
D-----------------------------------------------------------------------
A-----3-----3-----3-----3-----x-----x-----x-----x-----------------------
E-----x-----x-----x-----x-----1-----1-----1-----1-----------------------


e---------0.------0-----------------------------------------------------
B---1-----1.----1-----3p1---------3.----1h3-----0-----------------------
G---0-----------------------0-----0.----0-----0-------------------------
D---------------------------0-------------------------------------------
A-----3-----3-----3-----3-----x-----x-----x-----x-----------------------
E-----x-----x-----x-----x-----3-----3-----3-----3-----------------------


e---------8-\---0-----0-----------0-------------------------------------
B---1-------------4'----1-----4'----1---1---3p1-------------------------
G---0-----------------------0---------2-----------2---------------------
D-----x-----------------------------------------------------------------
A-----3-----------------------------------------------------------------
E-----------------------------------------------------------------------



DOWNLOAD THE COMPLETE INTRO TAB HERE



  • click 'Free Download'
  • add your e-mail address
  • you will get an e-mail with your download links (in a few seconds)
  • download the Guitar Pro 6 tab + GP5 + PDF for free
  • and that's all ...


Guitar Pro: a complete workshop for guitarists at an affordable price