20170425

CHRIS CORNELL ONE TAB (U2 MUSIC WITH METALLICA LYRICS)

Chris Cornell sings "One" with a single acoustic guitar.
U2 music with Metallica lyrics.
See the TAB below.



CHRIS CORNELL ONE TAB

GP5 + GP6 + PDF >>

Intro

e---0-------0-----0-0-0-0---0-0-0-0-2-------2-----2-2-2-2---2-2-2-2-----
B---1-------1-----1-1-1-0h1-1-1-1-1-1-------1-----1-1-1-0h1-1-1-1-1-----
G---2-------2-----2-2-2-2---2-2-2-2-2-------2-----2-2-2-2---2-2-2-2-----
D---2-------2-----2-2-2-2---2-2-2-2-0-------0-----0-0-0-0---0-0-0-0-----
A---0-------0-----0-0-0-0---0-0-0-0-------------------------------------
E-----------------------------------------------------------------------


e---0-----0-0-----0-0-0-0---0-0-0---3---3-3-3---3-3-3-3-3---3-3---------
B---1-----1-1-----1-1-1-0h1-1-1-1-0-0---0-0-1---1-1-1-0-0h1-1-1-1-------
G---2-----2-2-----2-2-2-2---2-2-2-0-0---0-0-0---0-0-0-0-0---0-0-0h2-----
D---3-----3-3-----3-3-3-3---3-3-3-0-0---0-0-0---0-0-0-0-0---0-0-0h2-----
A-----------------------------------2---2-2-2---2-2-2-2-2---2-2---------
E-----------------------------------3---3-3-3---3-3-3-3-3---3-3---------


e---0-----0-0---0-0-----0-----0-0-0-2-------2-----2-----2-----2-2-2-----
B---1-----1-1---1-0h1p0-1-----1-1-1-1-------1-----0h1p0-1-----1-1-1-----
G---2-----2-2---2-------2-----2-2-2-2-------2-----------2-----2-2-2-----
D---2-----2-2---2-------2-----2-2-2-0-------0-----------0-----0-0-0-----
A---0-----0-0---0-------0-----0-0-0-------------------------------------
E-----------------------------------------------------------------------



e---0-----0-0-----0-----0---0-0-0---3-----3-3-----3-----3---3-3-3-------
B---1-----1-1-----0h1p0-1---1-1-1-0-0-----0-1-----0h1p0-1---1-1-1-0-----
G---2-----2-2-----------2---2-2-2-2-0-----0-0-----------0---0-0-0-0-----
D---3-----3-3-----------3---3-3-3-3-0-----0-0-----------0---0-0-0-0-----
A-----------------------------------2-----2-2-----------2---2-2-2-------
E-----------------------------------3-----3-3-----------3---3-3-3-------


Verse

e---0-------0-----0-0-0-0---0-0-0-0-2-------2-----2-2-2-2---2-2-2-2-----
B---1-------1-----1-1-1-1---1-1-1-1-1-------1-----1-1-1-0h1-1-1-1-1-----
G---2-------2-----2-2-2-2---2-2-2-2-2-------2-----2-2-2-2---2-2-2-2-----
D---2-------2-----2-2-2-2---2-2-2-2-0-------0-----0-0-0-0---0-0-0-0-----
A---0-------0-----0-0-0-0---0-0-0-0-------------------------------------
E-----------------------------------------------------------------------


e---0-------0-----0-0-0-0---0-0-0---3---3-3-3---3-3-3-3-3-3-3-3-3-------
B---1-------1-----1-1-1-1---1-1-1-0-0---0-0-1---1-1-1-1-1-1-1-0-0-1-----
G---2-------2-----2-2-2-2---2-2-2-0-0---0-0-0---0-0-0-0-0-0-0-0-0-------
D---3-------3-----3-3-3-3---3-3-3-0-0---0-0-0---0-0-0-0-0-0-0-0-0-------
A-----------------------------------2---2-2-2---2-2-2-2-2-2-2-2-2-------
E-----------------------------------3---3-3-3---3-3-3-3-3-3-3-3-3-------


e---0-------0---0-0-0-0-0---0-0-0-0-2-----2-2-2-2-----2-2-2-2---2-0-----
B---1-------1---1-1-1-1-1---1-1-1-1-1-----1-1-1-1-----1-1-1-0h1-1-1-----
G---2-------2---2-2-2-2-2---2-2-2-2-2-----2-2-2-2-----2-2-2-2---2-2-----
D---2-------2---2-2-2-2-2---2-2-2-2-0-----0-0-0-0-----0-0-0-0---0-0-----
A---0-------0---0-0-0-0-0---0-0-0-0-------------------------------------
E-----------------------------------------------------------------------


e---0-------0-----0-0-0-0---0-0-0---3---3-3-3---3-3-3-3-3-3-3-3-3-------
B---1-------1-----1-1-1-1---1-1-1-0-0---0-0-1---1-1-1-1-1-1-1-0-0-1-----
G---2-------2-----2-2-2-2---2-2-2-0-0---0-0-0---0-0-0-0-0-0-0-0-0-------
D---3-------3-----3-3-3-3---3-3-3-0-0---0-0-0---0-0-0-0-0-0-0-0-0-------
A-----------------------------------2---2-2-2---2-2-2-2-2-2-2-2-2-------
E-----------------------------------3---3-3-3---3-3-3-3-3-3-3-3-3-------


Chorus

e---0-----0-0-0-0-----0-0-0-0---0-0-0-----0-0-0-0-----0-0-0-0---0-0-----
B---1-----1-1-1-1-----1-1-1-1---1-1-1-----1-1-1-1-----1-1-1-1---1-1-----
G---0-----0-0-0-0-----0-0-0-0---0-0-2-----2-2-2-2-----2-2-2-0---0-0-----
D---2-----2-2-2-2-----2-2-2-x---x-x-2-----2-2-2-2-----2-2-2-2---2-2-----
A---3-----3-3-3-3-----3-3-3-2---2-2-0-----0-0-0-0-----0-0-0-x---x-x-----
E-----------------------------------------------------------3---3-3-----


e---0-----0-0-0-0-----0-0-0-0---0-0-0-----0-0-0-0-----0-0-0-0-----0-----
B---1-----1-1-1-1-----1-1-1-1---1-1-1-----1-1-1-1-----1-1-1-1-----1-----
G---2-----2-2-2-2-----2-2-2-2---2-2-0-----0-0-0-0-----0-0-0-0-----0-----
D---3-----3-3-3-3-----3-3-3-3---3-3-2-----2-2-2-2-----2-2-2-0-----0-----
A---x-----x-x-x-x-----x-x-x-x---x-x-3-----3-3-3-3-----3-3-3-------------
E---1-----1-1-1-1-----1-1-1-1---1-1-------------------------------------


e---0-----0-0-0-0-----0-0-0-0---0-0-0-----0-0-0-0-----0-0-0-0---0-0-----
B---1-----1-1-1-1-----1-1-1-1---1-1-1-----1-1-1-1-----1-1-1-1---1-1-----
G---0-----0-0-0-0-----0-0-0-0---0-0-2-----2-2-2-2-----2-2-2-0---0-0-----
D---0h2---2-2-2-2-----2-2-2-x---x-x-2-----2-2-2-2-----2-2-2-2---2-2-----
A---------3-3-3-3-----3-3-3-2---2-2-0-----0-0-0-0-----0-0-0-x---x-x-----
E-----------------------------------------------------------3---3-3-----


e---0-----0-0-0-0-----0-0-0-0---0-0-0-----0-0-0-0-----------------------
B---1-----1-1-1-1-----1-1-1-1---1-1-1-----1-1-1-1-----------------------
G---2-----2-2-2-2-----2-2-2-2---2-2-0-----0-0-0-0-----------------------
D---3-----3-3-3-3-----3-3-3-3---3-3-2-----2-2-2-2-----------------------
A---x-----x-x-x-x-----x-x-x-x---x-x-3-----3-3-3-3-----------------------
E---1-----1-1-1-1-----1-1-1-1---1-1-------------------------------------




DOWNLOAD THIS TAB IN GUITAR PRO



  • click 'Free Download'
  • add your e-mail address
  • you will get an e-mail with your download links (in a few seconds)
  • download the Guitar Pro 6 tab + GP5 + PDF for free
  • and that's all ...


Guitar Pro: a complete workshop for guitarists at an affordable price