20170629

LEONARD COHEN HALLELUJAH TAB (MINI COVER BY JEN TRANI)

Jen Trani plays Leonard Cohen's Hallelujah in the style of Jeff Buckley.
She uses open E tuning with Capo on the 4th fret.
Download the TAB below.



JEN TRANI HALLELUJAH TAB

GP5 + GP6 + PDF >>

Intro

e---------------7--------------11~----------------7--------------11~----
B------5-h7-/9-----9.-------9------------5-h7-/9-----9.-------9---------
Ab-----------------------0---------------------------------0------------
E-----------------------------------------------------------------------
B-----------------------------------------------------------------------
E---0-----------------9---------------0-----------------9---------------


e-----------------------------------------------------------------------
B----------5.-4--0-----------5.-4--0------------------------------------
Ab------5-----------5-----5-----------5---------------------------------
E-----------------------------------------------------------------------
B-----------------------------------------------------------------------
E----5-----------------5------------------------------------------------


e----------------------------------0------------------------------------
B----------7--7-----------------7-----7---------------------------------
Ab------7--------7-----------7------------------------------------------
E-----------------------------------------------------------------------
B-----------------------------------------------------------------------
E----7--------------7--7------------------------------------------------



e-------------0-----------------0---------------------------------------
B----------0-----0-----------2-----2------------------------------------
Ab------0-----------------0-----------0---------------------------------
E-----------------------------------------------------------------------
B-------------------1--2------------------------------------------------
E----0------------------------------------------------------------------


e-------------0-----------------0---------------------------------------
B----------0-----0-----------2-----2------------------------------------
Ab------0-----------------0-----------0---------------------------------
E-----------------------------------------------------------------------
B-------------------1--2------------------------------------------------
E----0------------------------------------------------------------------


Verse

e-------------0-----------------0---------------------------------------
B----------0-----0-----------2-----2------------------------------------
Ab------0-----------0-----0-----------0---------------------------------
E-----------------------------------------------------------------------
B----------------------2------------------------------------------------
E----0------------------------------------------------------------------


e-------------0-----------------0---------------------------------------
B----------0-----0-----------2-----2------------------------------------
Ab------0-----------0-----0-----------0---------------------------------
E-----------------------------------------------------------------------
B----------------------2------------------------------------------------
E----0------------------------------------------------------------------


e-----------------------------------------------------------------------
B-------------5-----------------7---------------------------------------
Ab---------5-----5-----------7-----7------------------------------------
E-------0-----------0-----0-----------0---------------------------------
B-----------------------------------------------------------------------
E----5-----------------7------------------------------------------------


e-------------0------------------------0--------------------------------
B----------0-----0------------------0-----------------------------------
Ab------0-----------0-----7-h8-/10--------------------------------------
E-----------------------------------------------------------------------
B----------------------0------------------------------------------------
E----0------------------------------------------------------------------


e------------0-----------------------------------0----------------------
B---------0-----0-----------5--------7--------2-----2--------------5----
Ab-----0-----------0-----------------------0-----------0--------5-------
E------------------------0--------0--------------------------0----------
B---------------------------------------2-------------------------------
E---0-----------------5--------7--------------------------5-------------


e------------0-----------------4-----------------0----------------------
B---------7-----0-----------4-----4-----------2-----2-------------------
Ab-----7-----------0-----3-----------0-----0-----------0----------------
E---------------------4-------------------------------------------------
B---------------------------------------2-----------------2-------------
E---7-------------------------------------------------------------------


e-----------------------------------------------------------------------
B-------------5-----------------5---------------------------------------
Ab---------5-----5-----------5-----5------------------------------------
E-------0-----------0-----0-----------0---------------------------------
B-----------------------------------------------------------------------
E----5-----------------5------------------------------------------------


e-------------0-----------------0---------------------------------------
B----------2-----2-----------2-----2------------------------------------
Ab------0-----------0-----0-----------0---------------------------------
E-----------------------------------------------------------------------
B----2-----------------2------------------------------------------------
E-----------------------------------------------------------------------


e-----------------------------------------------------------------------
B-------------5-----------------5---------------------------------------
Ab---------5-----5-----------5-----5------------------------------------
E-------0-----------0-----0-----------0---------------------------------
B-----------------------------------------------------------------------
E----5-----------------5------------------------------------------------


e-----------------------------------------------------------------------
B-------------0-----------------7---------------------------------------
Ab---------0-----0-----------7-----7------------------------------------
E-------0-----------0-----0-----------0---------------------------------
B-----------------------------------------------------------------------
E----0-----------------7------------------------------------------------




DOWNLOAD THIS TAB IN GUITAR PRO



  • click 'Free Download'
  • add your e-mail address
  • you will get an e-mail with your download links (in a few seconds)
  • download the Guitar Pro 6 tab + GP5 + PDF for free
  • and that's all ...


Guitar Pro: a complete workshop for guitarists at an affordable price