20170701

ACOUSTICIAN HOTEL CALIFORNIA SOLO TAB (THE EAGLES)


The Eagles - Hotel California solo part played on acoustic guitar by Acoustician.
His name is Juha Järvinen and he adds a nice improvisation at the end (~ 2:14)
Download the Guitar Pro 6 and PDF tab below.



ACOUSTICIAN HOTEL CALIFORNIA SOLO TAB

GP5 + GP6 + PDF >>

e-----------------------------------------------------------------------
B----------10h12/15~-------10h12-------------7--------------------------
G---6/11------------------------11\9~----7h9---7------------------------
D------------------------------------------------9-8~-------------------
A-----------------------------------------------------------------------E-----------------------------------------------------------------------


e-----------------------------------------------------------------------
B-----------------------------------------------------------------------
G-----------------------------------------------------------------------
D---9-h12p9-7--/8~------------------------------------------------------
A-----------------------------------------------------------------------
E-----------------------------------------------------------------------


e-----------------------------------------10----------------------------
B-------7---------------7-----------10/12----12\10~--7-10-9~------------
G---7h9---7---------7h9---7-------7-------------------------------------
D-----------9-8-9~----------9-8-9---------------------------------------
A-----------------------------------------------------------------------
E-----------------------------------------------------------------------


e---7---10/12~------10.--12p10----------10------------------------------
B-----7------------------------12-10/12----12\10-8~---------------------
G-----------------------------------------------------------------------
D-----------------------------------------------------------------------
A-----------------------------------------------------------------------
E-----------------------------------------------------------------------


e--------10.------------------------------------------------------------
B-----------------------------------------------------------------------
G---9/11------11\9-7.--7\6-7~-------------------------------------------
D-----------------------------------------------------------------------
A-----------------------------------------------------------------------
E-----------------------------------------------------------------------


e-----------------------------------------------------------------------
B-------7(8).--7(8)(7)-------7(8).--7(8).--7(8)(7)----------------------
G---7h9----------------9-7-9-----------------------9-7------------------
D-----------------------------------------------------------------------
A-----------------------------------------------------------------------
E-----------------------------------------------------------------------


e----------------------7------------------------------------------------
B---------7-10-------7--------------------------------------------------
G---9(11)------9(11)-----9(11)(9)-7-9/11~~~-----------------------------
D-----------------------------------------------------------------------
A-----------------------------------------------------------------------
E-----------------------------------------------------------------------


DOWNLOAD THE COMPLETE TAB HERE



  • click 'Free Download'
  • add your e-mail address
  • you will get an e-mail with your download links (in a few seconds)
  • download the Guitar Pro 6 tab + GP5 + PDF for free
  • and that's all ...


Guitar Pro: a complete workshop for guitarists at an affordable price