20170829

ANDRES SEGOVIA MEXICAN FOLKSONG TAB (GP6 + GP5 + PDF)


Andrés Segovia plays Mexican Folksong - brilliant classical guitar playing.
Download the TAB below.



ANDRES SEGOVIA MEXICAN FOLKSONG TAB

GP5 + GP6 + PDF >>

Part 1

e-----7--4--0--5--------0--4--------------------------------------------
B-----5--4--------7--4--0--5--------------------------------------------
G-----4-----7--6--5--4--------------------------------------------------
D--------------------------6--4-----------------------------------------
A--------------------------------7-p6--4--------------------------------
E-----0--------0--------0-----------------------------------------------


e-----0--0--4--7--4--0-----2--------------------------------------------
B-------------------------5---4--2--4-----------------------------------
G------------------------4-------------3-/4-----------------------------
D-----------------4--6--------------------------------------------------
A-----2--4--6--7--------2-----------------------------------------------
E-----0-----------------------------------------------------------------


e-----2--2--0--------0--2-/7------------------------9--\----------------
B-----4--4-----4--4-----0------------6--7--8--9----10--\----------------
G-----2--2--0--2--2-----2------------7--8--9--10--11---\----------------
D--------------4--4--2----------------------------9----\----------------
A-----2-----------------2-----------------------------------------------
E-----------------------------------------------------------------------



e---------------------------0-------------------------------------------
B-----7--9--12p10--9--8--9----------------------------------------------
G-----------------------------------------------------------------------
D-----7--9--11-----9--8-------------------------------------------------
A---------------------------------6-\4----------------------------------
E------------------------0--6-/7--------7-------------------------------


e-----7--4--0--5--------0--4-----------7--/-----------------------------
B-----5--4--------7--4--0--5--------------------------------------------
G-----4-----7--6--5--4--------------------------------------------------
D--------------------------6--4-----------------------------------------
A--------------------------------7--6--5--------------------------------
E-----0--------0--------0-----------------------------------------------


e-----10------10--10-p9--8-----9----------------------------------------
B------------------9----------10--10.---9.--10~-------------------------
G---------10--11---------10--11---11.--10.--11~-------------------------
D-----------------------------------------------------------------------
A------------------8---------9------------------------------------------
E-----9------------------9----------------------------------------------




DOWNLOAD THIS TAB IN GUITAR PRO



  • click 'Free Download'
  • add your e-mail address
  • you will get an e-mail with your download links (in a few seconds)
  • download the Guitar Pro 6 tab + GP5 + PDF for free
  • and that's all ...


Guitar Pro: a complete workshop for guitarists at an affordable price