20170807

BEE GEES HOW DEEP IS YOUR LOVE TAB (FINGERSTYLE GUITAR COVER BY GIAN PIERO FERRINI)

Gian Piero Ferrini plays a great fingerstyle guitar cover of How Deep Is Your Love.
Dropped D tuning with CAPO on the 2nd fret. (original song by Bee Gees)
Download the Guitar Pro 6 and PDF files below.



GIAN PIERO FERRINI HOW DEEP IS YOUR LOVE TAB

GP6 + PDF >>

Intro

e-----------------------------------------------------------------------
B-----------------------0-------------------------------0---------------
G-----------0--h2---------------0---------------2---------------0-------
D-------0-----------0-------0-----------0--h4-------4-------4-----------
A-----------------------------------------------------------------------
D---5-------------------------------5-----------------------------------


e-----------------------------------------------------------------------
B---------------0-------------------0h1-----------------1---------------
G-----------0-----------0-------0---0-----------0-----------------0-----
D-------2-----------2-------2-------2-------2-------2-------0h2---------
A---3-------------------------------0-----------------------------------
D-----------------------------------------------------------------------


e-----------------------------------------------------------------------
B-----------------------0-------------------------------0---------------
G-----------0--h2---------------0---------------2---------------0-------
D-------0-----------0-------0-----------0--h4-------4-------4-----------
A-----------------------------------------------------------------------
D---5-------------------------------5-----------------------------------

 

e-----------------------------------------------------------------------
B---------------0-------------------0h1~--------------------------------
G-----------0-----------0-------0---0-----------------------0--h2-------
D-------2-----------2-------2-------2-------------------0---------------
A---3-------------------------------0-----------------------------------
D-----------------------------------------------------------------------


Verse

e-----------------------------------------------------------------------
B---0-------0-----------0-------------------1---------------0---0h1-----
G-----------0---0---2-----------0---------------0---1--h2---------------
D-------0-----------0-------0-----------2-----------2-------------------
A-------------------2---------------0-----------------------------------
D---5-----------------------------------------------2-------------------


e-----------------------------------------------------------------------
B-----------1-------0-------1---------------------------0---1---1/3-----
G---------------2---2-----------2---------------2-----------------------
D-------2-----------1---1-------------------2-------2-------------------
A---0---------------2-------------------3-------------------------------
D-----------------------------------0-----------------------------------


e-----------------------0-----------------------------------------------
B-----------3---0---3-----------3-------0-------------------------0-----
G-----------4-------2-------2-----------0---2/3\2-0-------0---2---------
D-------0-------------------------------0-------------0-----------------
A-------------------2---------------------------------------------------
D---5-------------------------------2-----------------------------------




DOWNLOAD THIS TAB IN GUITAR PRO



  • click 'Free Download'
  • add your e-mail address
  • you will get an e-mail with your download links (in a few seconds)
  • download the Guitar Pro 6 tab + PDF for free
  • and that's all ...


Guitar Pro: a complete workshop for guitarists at an affordable price