20170928

BLAZE FOLEY IF I COULD ONLY FLY TAB (GUITAR PRO)


Blaze Foley plays If I Could Only Fly. One single guitar and Blaze Foley.
Half-step down tuning
Download the tab below.



BLAZE FOLEY IF I COULD ONLY FLY TAB

GP5 + GP6 + PDF >>

Intro

eb----------------------------------------------------------------------
Bb-------1-----------1-------------------0-----------0------------------
Gb-----------0-----------0-------0-----------0-----------0-------0------
Db---------------2h3---------3-------------------0h2--p0----------------
Ab---3-------------------------------------------------------0h2--------
Eb-----------------------------------3----------------------------------


eb---------------------------------------------------0------------------
Bb-------1---------------1---------------1---------------1-------1------
Gb-----------0---------------2---------------0---------------0----------
Db---------------0h3-------------3---------------2----------------------
Ab---3-------------------------------3----------------------------------
Eb-------------------1--------------------------------------------------


eb----------------------------------------------------------------------
Bb-------1-----------1-------------------0-----------0------------------
Gb-----------0-----------0-------0-----------0-----------0-------0------
Db---------------2h3---------3-------------------0h2--p0----------------
Ab---3-------------------------------------------------------0h2--------
Eb-----------------------------------3----------------------------------



eb---------------------------------------------------0------------------
Bb-------1---------------1---------------1---------------1-------1------
Gb-----------0---------------2---------------0---------------0----------
Db---------------0h3-------------3---------------2----------------------
Ab---3-------------------------------3----------------------------------
Eb-------------------1--------------------------------------------------




DOWNLOAD THIS TAB IN GUITAR PRO



  • click 'Free Download'
  • add your e-mail address
  • you will get an e-mail with your download links (in a few seconds)
  • download the Guitar Pro 6 tab + GP5 + PDF for free
  • and that's all ...


Guitar Pro: a complete workshop for guitarists at an affordable price