20170917

VELVET REVOLVER WISH YOU WERE HERE TAB (LIVE INTRO SOLO BY SLASH)

Velvet Revolver - Wish You Were Here live version with a great Slash intro.
The intro solo is about 0:23 - 1:39 played on a double guitar.
Half step-down tuning.



VELVET REVOLVER WISH YOU WERE HERE TAB (INTRO SOLO)

PDF >>

 0:23 - 1:39

eb---10------10------10------10--------------10------10-----------------
Bb---10h12---10h12---10h12---10h12-----------10h12---10h12---10---------
Gb----------------------------------------------------------------------
Db----------------------------------------------------------------------
Ab----------------------------------------------------------------------
Eb----------------------------------------------------------------------


eb----------------------------------------------------------------------
Bb---10.--10--------10--------------------------------------------------
Gb---9.---9h11---11-----------------------------------------------------
Db-------------0--------------------------------------------------------
Ab----------------------------------------------------------------------
Eb----------------------------------------------------------------------


eb-------10------10-----------------------------------------------------
Bb-------10h12---10h12---10---10-------10---10---\----------------------
Gb-----------------------9----9h11-----9h11-9----\----------------------
Db---0------------------------------------------------------------------
Ab----------------------------------------------------------------------
Eb----------------------------------------------------------------------



eb-------------------------------------------------------------0--------
Bb-------------------7-----7-----5h7---7-----7-----7-----5h7-----7------
Gb---4--/7---7---------7-----7-----------7-----7-----7-------------7----
Db---0-------0-----------0-----0-----0-----0-----0-----0-----0-------0--
Ab----------------------------------------------------------------------
Eb----------------------------------------------------------------------


eb---0------------------------------------------------------------------
Bb-----7-------7-------------8-----8-----8-----8-------7h8---8----------
Gb-------7---7---7---0-7---------7-----7-----7---7---7-7---------7------
Db---------0-------0---7h9-9---9-----9-----9-------9---7h9-9---9--------
Ab----------------------------------------------------------------------
Eb----------------------------------------------------------------------


eb----------------------------------------------------------------------
Bb---7h8---8-----7h8p7--------------------------------------------------
Gb---7---------7-------7---7h9---7---7-7-----7--------------------------
Db---7h9-9---9-----------7-----7---7---7h9---7--------------------------
Ab----------------------------------------------------------------------
Eb----------------------------------------------------------------------


eb----------------------------------------------------------------------
Bb-----7-------------------10--10---------------7h8---8-----10----8-----
Gb-----7h9-7-----7-7h9-9/11--11--11\9p7-9-7-----7---------7-----7-----7-
Db-7h9-------7h9----------------------------9-7-----9---9-----9-----9---
Ab----------------------------------------------------------------------
Eb----------------------------------------------------------------------


eb----------------------------------7-----7-----7-----7-----------------
Bb---8-----8-----8-----8-----10---------8---8-------8---8---8-8-7-------
Gb-----7-------7---7-------7----7-----7-------7---7-------7-------9-7---
Db-------9---9-------9---9--------9-------------------------------------
Ab----------------------------------------------------------------------
Eb----------------------------------------------------------------------


eb----------------------------------------------------------------------
Bb-----------------------10~------10------------------------------------
Gb-------7-----7-7---9/11-----------\9---7~-----------------------------
Db---7-7---7h9-----7----------------------------------------------------
Ab----------------------------------------------------------------------
Eb----------------------------------------------------------------------


eb-----------------------------------8------8---8-----------------------
Bb------------------8----------------8h10---8---8h10p8------------------
Gb-------7.-------9-----------------------------------10.--9------------
Db---7h9-----10-------10---------------------------------------10.------
Ab----------------------------------------------------------------------
Eb----------------------------------------------------------------------


eb----------------------------------------------------------------------
Bb---8-----8-----8-----8-----8h10-8-----0-------7---7-------5---5-------
Gb---7---------7-----7-----7--------0-----0-----------------------------
Db---9---9---9-----9-----9----------0-----0h7-7---7---7\5-5---5---------
Ab----------------------------------------------------------------------
Eb----------------------------------------------------------------------


eb----------------------------------------------------------------------
Bb-------3---3-----3-----3-----3-----3----------------------------------
Gb-------------0-------0---0-------0---0---0----------------------------
Db---0h4---4-----4---4-------4---4-------4------------------------------
Ab----------------------------------------------------------------------
Eb----------------------------------------------------------------------


eb---------0-------------------------------0-------------------0--------
Bb-------3---3---5-----5-------5-----3-------3-----3-----3---------0----
Gb-----0-------0-----0---0---0-----0-----0-------0-----0---0------------
Db---5-------------5-------5-----5-----5-------5-----5-------5---5------
Ab----------------------------------------------------------------------
Eb----------------------------------------------------------------------


eb---------2-----2-----2-----3-2-----------0----------------------------
Bb---3---------3---3-------3-----3---3-----------3----------------------
Gb---2-------2-------2---2---------2---2-------2---2---0h2-0------------
Db---0-----------------------------------0---0-------0-------0----------
Ab-------------------------------------------------------------0--------
Eb----------------------------------------------------------------------


eb----------------------------------------------------------------------
Bb---------3---------------3--------------------------------------------
Gb---------------0h2-0-------------------0---0-h2p0--0-----0-------0----
Db---0h2-------2-------0h2---0h2-0---0-----0-------2---0h2---0-------0--
Ab-------3---3-------------------------------------------------0h2------
Eb---------------------------------3---3--------------------------------


eb-----------------------------------------------------------5.---------
Bb-----------------3-----------3-----------------------3-----5.---------
Gb-----------2h4-------2-2h4-------2-2h4-2-------2h4-4-----4------------
Db-------0-------0-------0---0-------0-------2h4-----0------------------
Ab---0h2----------------------------------------------------------------
Eb----------------------------------------------------------------------


eb---------5------------------------------------------------------------
Bb---5/7----------------------------------------------------------------
Gb----------------------------------------------------------------------
Db----------------------------------------------------------------------
Ab----------------------------------------------------------------------
Eb----------------------------------------------------------------------