20171024

DOROTHY NO CHURCH IN THE WILD TAB (LIVE IN AUSTIN, 2015 #JAMINTHEVAN)


Dorothy - No Church In The Wild live #Jaminthevan
Standard tuning, download the TAB below



DOROTHY NO CHURCH IN THE WILD TAB

GP5 + GP6 + PDF >>

Intro

e-----------------------------------------------------------------------
B-----------------------------------------------------------------------
G-----------------------------------------------------------------------
D--------------------2-----------2h4------------------2-----------------
A--------------2p0-----2------------------------2p0-----4-2---2---------
E---2~---5-2-5-----2-----5-2-5-2-----2~---5-2-5-----2-------5---5-2~----


e-----------------------------------------------------------------------
B-----------------------------------------------------------------------
G-----------------------------------------------------------------------
D--------------------2-----------2h4------------------2-----------------
A--------------2p0-----2------------------------2p0-----4-2---2---------
E---2~---5-2-5-----2-----5-2-5-2-----2~---5-2-5-----2-------5---5-2-0---


Verse

e-----------------------------------------------------------------------
B-----------------------------------------------------------------------
G-----------------------------------------------------------------------
D--------------------2-----------2h4------------------2-----------------
A--------------2p0-----2------------------------2p0-----4-2---2---------
E---2~---5-2-5-----2-----5-2-5-2-----2~---5-2-5-----2-------5---5-2-0---



e-----------------------------------------------------------------------
B-----------------------------------------------------------------------
G-----------------------------------------------------------------------
D--------------------2-----------2h4------------------2-----------------
A--------------2p0-----2------------------------2p0-----4-2---2---------
E---2~---5-2-5-----2-----5-2-5-2-----2~---5-2-5-----2-------5---5-2-x---


e-----------------------------------------------------------------------
B-----------------------------------------------------------------------
G---7--------7---7-0--------4-4.----------------------------------------
D---7--------7---7-0-7-7.---4-4.----------------------------------------
A---5--------5---5-0-7-7.---2-2.----------------------------------------
E---5--------5---5---5-5.-----------------------------------------------




DOWNLOAD THE COMPETE TAB HERE



  • click 'Free Download'
  • add your e-mail address
  • you will get an e-mail with your download links (in a few seconds)
  • download the Guitar Pro 6 tab + GP5 + PDF for free
  • and that's all ...


Guitar Pro: a complete workshop for guitarists at an affordable price